  0
SECTION
  2
HEADER
  9
$ACADVER
  1
AC1018
  9
$ACADMAINTVER
 70
     0
  9
$DWGCODEPAGE
  3
ANSI_932
  9
$INSBASE
 10
0.0
 20
0.0
 30
0.0
  9
$EXTMIN
 10
1.000000000000000E+20
 20
1.000000000000000E+20
 30
1.000000000000000E+20
  9
$EXTMAX
 10
-1.000000000000000E+20
 20
-1.000000000000000E+20
 30
-1.000000000000000E+20
  9
$LIMMIN
 10
0.0
 20
0.0
  9
$LIMMAX
 10
12.0
 20
9.0
  9
$ORTHOMODE
 70
     0
  9
$REGENMODE
 70
     1
  9
$FILLMODE
 70
     1
  9
$QTEXTMODE
 70
     0
  9
$MIRRTEXT
 70
     1
  9
$LTSCALE
 40
1.0
  9
$ATTMODE
 70
     1
  9
$TEXTSIZE
 40
0.2
  9
$TRACEWID
 40
0.05
  9
$TEXTSTYLE
  7
Standard
  9
$CLAYER
  8
0
  9
$CELTYPE
  6
ByLayer
  9
$CECOLOR
 62
   256
  9
$CELTSCALE
 40
1.0
  9
$DISPSILH
 70
     0
  9
$DIMSCALE
 40
1.0
  9
$DIMASZ
 40
0.18
  9
$DIMEXO
 40
0.0625
  9
$DIMDLI
 40
0.38
  9
$DIMRND
 40
0.0
  9
$DIMDLE
 40
0.0
  9
$DIMEXE
 40
0.18
  9
$DIMTP
 40
0.0
  9
$DIMTM
 40
0.0
  9
$DIMTXT
 40
0.18
  9
$DIMCEN
 40
0.09
  9
$DIMTSZ
 40
0.0
  9
$DIMTOL
 70
     0
  9
$DIMLIM
 70
     0
  9
$DIMTIH
 70
     1
  9
$DIMTOH
 70
     1
  9
$DIMSE1
 70
     0
  9
$DIMSE2
 70
     0
  9
$DIMTAD
 70
     0
  9
$DIMZIN
 70
     0
  9
$DIMBLK
  1

  9
$DIMASO
 70
     1
  9
$DIMSHO
 70
     1
  9
$DIMPOST
  1

  9
$DIMAPOST
  1

  9
$DIMALT
 70
     0
  9
$DIMALTD
 70
     2
  9
$DIMALTF
 40
25.4
  9
$DIMLFAC
 40
1.0
  9
$DIMTOFL
 70
     0
  9
$DIMTVP
 40
0.0
  9
$DIMTIX
 70
     0
  9
$DIMSOXD
 70
     0
  9
$DIMSAH
 70
     0
  9
$DIMBLK1
  1

  9
$DIMBLK2
  1

  9
$DIMSTYLE
  2
Standard
  9
$DIMCLRD
 70
     0
  9
$DIMCLRE
 70
     0
  9
$DIMCLRT
 70
     0
  9
$DIMTFAC
 40
1.0
  9
$DIMGAP
 40
0.09
  9
$DIMJUST
 70
     0
  9
$DIMSD1
 70
     0
  9
$DIMSD2
 70
     0
  9
$DIMTOLJ
 70
     1
  9
$DIMTZIN
 70
     0
  9
$DIMALTZ
 70
     0
  9
$DIMALTTZ
 70
     0
  9
$DIMUPT
 70
     0
  9
$DIMDEC
 70
     4
  9
$DIMTDEC
 70
     4
  9
$DIMALTU
 70
     2
  9
$DIMALTTD
 70
     2
  9
$DIMTXSTY
  7
Standard
  9
$DIMAUNIT
 70
     0
  9
$DIMADEC
 70
     0
  9
$DIMALTRND
 40
0.0
  9
$DIMAZIN
 70
     0
  9
$DIMDSEP
 70
    46
  9
$DIMATFIT
 70
     3
  9
$DIMFRAC
 70
     0
  9
$DIMLDRBLK
  1

  9
$DIMLUNIT
 70
     2
  9
$DIMLWD
 70
    -2
  9
$DIMLWE
 70
    -2
  9
$DIMTMOVE
 70
     0
  9
$LUNITS
 70
     2
  9
$LUPREC
 70
     4
  9
$SKETCHINC
 40
0.1
  9
$FILLETRAD
 40
0.5
  9
$AUNITS
 70
     0
  9
$AUPREC
 70
     0
  9
$MENU
  1
.
  9
$ELEVATION
 40
0.0
  9
$PELEVATION
 40
0.0
  9
$THICKNESS
 40
0.0
  9
$LIMCHECK
 70
     0
  9
$CHAMFERA
 40
0.5
  9
$CHAMFERB
 40
0.5
  9
$CHAMFERC
 40
1.0
  9
$CHAMFERD
 40
0.0
  9
$SKPOLY
 70
     0
  9
$TDCREATE
 40
2456853.621666667
  9
$TDUCREATE
 40
2456853.955
  9
$TDUPDATE
 40
2456853.621666678
  9
$TDUUPDATE
 40
2456853.955000012
  9
$TDINDWG
 40
0.0000000116
  9
$TDUSRTIMER
 40
0.0000000116
  9
$USRTIMER
 70
     1
  9
$ANGBASE
 50
0.0
  9
$ANGDIR
 70
     0
  9
$PDMODE
 70
     0
  9
$PDSIZE
 40
0.0
  9
$PLINEWID
 40
0.0
  9
$SPLFRAME
 70
     0
  9
$SPLINETYPE
 70
     6
  9
$SPLINESEGS
 70
     8
  9
$HANDSEED
  5
2CC
  9
$SURFTAB1
 70
     6
  9
$SURFTAB2
 70
     6
  9
$SURFTYPE
 70
     6
  9
$SURFU
 70
     6
  9
$SURFV
 70
     6
  9
$UCSBASE
  2

  9
$UCSNAME
  2

  9
$UCSORG
 10
0.0
 20
0.0
 30
0.0
  9
$UCSXDIR
 10
1.0
 20
0.0
 30
0.0
  9
$UCSYDIR
 10
0.0
 20
1.0
 30
0.0
  9
$UCSORTHOREF
  2

  9
$UCSORTHOVIEW
 70
     0
  9
$UCSORGTOP
 10
0.0
 20
0.0
 30
0.0
  9
$UCSORGBOTTOM
 10
0.0
 20
0.0
 30
0.0
  9
$UCSORGLEFT
 10
0.0
 20
0.0
 30
0.0
  9
$UCSORGRIGHT
 10
0.0
 20
0.0
 30
0.0
  9
$UCSORGFRONT
 10
0.0
 20
0.0
 30
0.0
  9
$UCSORGBACK
 10
0.0
 20
0.0
 30
0.0
  9
$PUCSBASE
  2

  9
$PUCSNAME
  2

  9
$PUCSORG
 10
0.0
 20
0.0
 30
0.0
  9
$PUCSXDIR
 10
1.0
 20
0.0
 30
0.0
  9
$PUCSYDIR
 10
0.0
 20
1.0
 30
0.0
  9
$PUCSORTHOREF
  2

  9
$PUCSORTHOVIEW
 70
     0
  9
$PUCSORGTOP
 10
0.0
 20
0.0
 30
0.0
  9
$PUCSORGBOTTOM
 10
0.0
 20
0.0
 30
0.0
  9
$PUCSORGLEFT
 10
0.0
 20
0.0
 30
0.0
  9
$PUCSORGRIGHT
 10
0.0
 20
0.0
 30
0.0
  9
$PUCSORGFRONT
 10
0.0
 20
0.0
 30
0.0
  9
$PUCSORGBACK
 10
0.0
 20
0.0
 30
0.0
  9
$USERI1
 70
     0
  9
$USERI2
 70
     0
  9
$USERI3
 70
     0
  9
$USERI4
 70
     0
  9
$USERI5
 70
     0
  9
$USERR1
 40
0.0
  9
$USERR2
 40
0.0
  9
$USERR3
 40
0.0
  9
$USERR4
 40
0.0
  9
$USERR5
 40
0.0
  9
$WORLDVIEW
 70
     1
  9
$SHADEDGE
 70
     3
  9
$SHADEDIF
 70
    70
  9
$TILEMODE
 70
     1
  9
$MAXACTVP
 70
    64
  9
$PINSBASE
 10
0.0
 20
0.0
 30
0.0
  9
$PLIMCHECK
 70
     0
  9
$PEXTMIN
 10
1.000000000000000E+20
 20
1.000000000000000E+20
 30
1.000000000000000E+20
  9
$PEXTMAX
 10
-1.000000000000000E+20
 20
-1.000000000000000E+20
 30
-1.000000000000000E+20
  9
$PLIMMIN
 10
0.0
 20
0.0
  9
$PLIMMAX
 10
12.0
 20
9.0
  9
$UNITMODE
 70
     0
  9
$VISRETAIN
 70
     1
  9
$PLINEGEN
 70
     0
  9
$PSLTSCALE
 70
     1
  9
$TREEDEPTH
 70
  3020
  9
$CMLSTYLE
  2
Standard
  9
$CMLJUST
 70
     0
  9
$CMLSCALE
 40
1.0
  9
$PROXYGRAPHICS
 70
     1
  9
$MEASUREMENT
 70
     0
  9
$CELWEIGHT
370
    -1
  9
$ENDCAPS
280
     0
  9
$JOINSTYLE
280
     0
  9
$LWDISPLAY
290
     1
  9
$INSUNITS
 70
     1
  9
$HYPERLINKBASE
  1

  9
$STYLESHEET
  1

  9
$XEDIT
290
     1
  9
$CEPSNTYPE
380
     0
  9
$PSTYLEMODE
290
     1
  9
$FINGERPRINTGUID
  2
{E9E8B6E6-966C-38F9-8B6E-0FBA2507D158}
  9
$VERSIONGUID
  2
{FAEB1C32-E019-11D5-929B-00C0DF256EC4}
  9
$EXTNAMES
290
     1
  9
$PSVPSCALE
 40
0.0
  9
$OLESTARTUP
290
     0
  9
$SORTENTS
280
   127
  9
$INDEXCTL
280
     0
  9
$HIDETEXT
280
     1
  9
$XCLIPFRAME
290
     0
  9
$HALOGAP
280
     0
  9
$OBSCOLOR
 70
   257
  9
$OBSLTYPE
280
     0
  9
$INTERSECTIONDISPLAY
280
     0
  9
$INTERSECTIONCOLOR
 70
   257
  9
$DIMASSOC
280
     2
  9
$PROJECTNAME
  1

  0
ENDSEC
  0
SECTION
  2
CLASSES
  0
CLASS
  1
ACDBDICTIONARYWDFLT
  2
AcDbDictionaryWithDefault
  3
ObjectDBX Classes
 90
        0
 91
        3
280
     0
281
     0
  0
CLASS
  1
VISUALSTYLE
  2
AcDbVisualStyle
  3
ObjectDBX Classes
 90
     4095
 91
        3
280
     0
281
     0
  0
ENDSEC
  0
SECTION
  2
TABLES
  0
TABLE
  2
VPORT
  5
8
330
0
100
AcDbSymbolTable
 70
     1
  0
VPORT
  5
29
330
8
100
AcDbSymbolTableRecord
100
AcDbViewportTableRecord
  2
*Active
 70
     0
 10
0.0
 20
0.0
 11
1.0
 21
1.0
 12
0.0
 22
0.0
 13
0.0
 23
0.0
 14
0.5
 24
0.5
 15
0.5
 25
0.5
 16
0.0
 26
0.0
 36
1.0
 17
9.0
 27
9.0
 37
0.0
 40
18.0
 41
1.0
 42
50.0
 43
0.0
 44
0.0
 50
0.0
 51
0.0
 71
     0
 72
   100
 73
     1
 74
     3
 75
     0
 76
     0
 77
     0
 78
     0
281
     0
 65
     1
110
0.0
120
0.0
130
0.0
111
1.0
121
0.0
131
0.0
112
0.0
122
1.0
132
0.0
 79
     0
146
0.0
  0
ENDTAB
  0
TABLE
  2
LTYPE
  5
5
330
0
100
AcDbSymbolTable
 70
     1
  0
LTYPE
  5
14
330
5
100
AcDbSymbolTableRecord
100
AcDbLinetypeTableRecord
  2
ByBlock
 70
     0
  3

 72
    65
 73
     0
 40
0.0
  0
LTYPE
  5
15
330
5
100
AcDbSymbolTableRecord
100
AcDbLinetypeTableRecord
  2
ByLayer
 70
     0
  3

 72
    65
 73
     0
 40
0.0
  0
LTYPE
  5
16
330
5
100
AcDbSymbolTableRecord
100
AcDbLinetypeTableRecord
  2
Continuous
 70
     0
  3
Solid line
 72
    65
 73
     0
 40
0.0
  0
ENDTAB
  0
TABLE
  2
LAYER
  5
2
330
0
100
AcDbSymbolTable
 70
     3
  0
LAYER
  5
10
330
2
100
AcDbSymbolTableRecord
100
AcDbLayerTableRecord
  2
0
 70
     0
 62
     7
  6
Continuous
370
    -3
390
F
  0
LAYER
  5
3B
330
2
100
AcDbSymbolTableRecord
100
AcDbLayerTableRecord
  2
DIMLAY
 70
     0
 62
     7
  6
Continuous
370
    -3
390
F
  0
LAYER
  5
22A
330
2
100
AcDbSymbolTableRecord
100
AcDbLayerTableRecord
  2
PART
 70
     4
 62
     7
  6
Continuous
370
    -3
390
F
  0
ENDTAB
  0
TABLE
  2
STYLE
  5
3
330
0
100
AcDbSymbolTable
 70
     1
  0
STYLE
  5
11
330
3
100
AcDbSymbolTableRecord
100
AcDbTextStyleTableRecord
  2
Standard
 70
     0
 40
0.0
 41
1.0
 50
0.0
 71
     0
 42
0.2
  3
txt
  4

  0
ENDTAB
  0
TABLE
  2
VIEW
  5
6
330
0
100
AcDbSymbolTable
 70
     0
  0
ENDTAB
  0
TABLE
  2
UCS
  5
7
330
0
100
AcDbSymbolTable
 70
     0
  0
ENDTAB
  0
TABLE
  2
APPID
  5
9
330
0
100
AcDbSymbolTable
 70
     1
  0
APPID
  5
12
330
9
100
AcDbSymbolTableRecord
100
AcDbRegAppTableRecord
  2
ACAD
 70
     0
  0
ENDTAB
  0
TABLE
  2
DIMSTYLE
  5
A
330
0
100
AcDbSymbolTable
 70
     1
100
AcDbDimStyleTable
  0
DIMSTYLE
105
27
330
A
100
AcDbSymbolTableRecord
100
AcDbDimStyleTableRecord
  2
Standard
 70
     0
340
11
  0
ENDTAB
  0
TABLE
  2
BLOCK_RECORD
  5
1
330
0
100
AcDbSymbolTable
 70
    91
  0
BLOCK_RECORD
  5
1F
330
1
100
AcDbSymbolTableRecord
100
AcDbBlockTableRecord
  2
*Model_Space
340
22
  0
BLOCK_RECORD
  5
1B
330
1
100
AcDbSymbolTableRecord
100
AcDbBlockTableRecord
  2
*Paper_Space
340
1E
  0
BLOCK_RECORD
  5
23
330
1
100
AcDbSymbolTableRecord
100
AcDbBlockTableRecord
  2
*Paper_Space0
340
26
  0
BLOCK_RECORD
  5
3C
330
1
100
AcDbSymbolTableRecord
100
AcDbBlockTableRecord
  2
block 2
340
0
102
{BLKREFS
331
3D
102
}
  0
BLOCK_RECORD
  5
4F
330
1
100
AcDbSymbolTableRecord
100
AcDbBlockTableRecord
  2
block 3
340
0
102
{BLKREFS
331
50
102
}
  0
BLOCK_RECORD
  5
53
330
1
100
AcDbSymbolTableRecord
100
AcDbBlockTableRecord
  2
block 4
340
0
102
{BLKREFS
331
54
102
}
  0
BLOCK_RECORD
  5
5B
330
1
100
AcDbSymbolTableRecord
100
AcDbBlockTableRecord
  2
block 5
340
0
102
{BLKREFS
331
5C
102
}
  0
BLOCK_RECORD
  5
63
330
1
100
AcDbSymbolTableRecord
100
AcDbBlockTableRecord
  2
block 6
340
0
102
{BLKREFS
331
64
102
}
  0
BLOCK_RECORD
  5
6B
330
1
100
AcDbSymbolTableRecord
100
AcDbBlockTableRecord
  2
block 7
340
0
102
{BLKREFS
331
6C
102
}
  0
BLOCK_RECORD
  5
73
330
1
100
AcDbSymbolTableRecord
100
AcDbBlockTableRecord
  2
block 8
340
0
102
{BLKREFS
331
74
102
}
  0
BLOCK_RECORD
  5
7E
330
1
100
AcDbSymbolTableRecord
100
AcDbBlockTableRecord
  2
block 9
340
0
102
{BLKREFS
331
7F
102
}
  0
BLOCK_RECORD
  5
89
330
1
100
AcDbSymbolTableRecord
100
AcDbBlockTableRecord
  2
block 10
340
0
102
{BLKREFS
331
8A
102
}
  0
BLOCK_RECORD
  5
8F
330
1
100
AcDbSymbolTableRecord
100
AcDbBlockTableRecord
  2
block 11
340
0
102
{BLKREFS
331
90
102
}
  0
BLOCK_RECORD
  5
97
330
1
100
AcDbSymbolTableRecord
100
AcDbBlockTableRecord
  2
block 12
340
0
102
{BLKREFS
331
98
102
}
  0
BLOCK_RECORD
  5
9F
330
1
100
AcDbSymbolTableRecord
100
AcDbBlockTableRecord
  2
block 13
340
0
102
{BLKREFS
331
A0
102
}
  0
BLOCK_RECORD
  5
A7
330
1
100
AcDbSymbolTableRecord
100
AcDbBlockTableRecord
  2
block 14
340
0
102
{BLKREFS
331
A8
102
}
  0
BLOCK_RECORD
  5
AD
330
1
100
AcDbSymbolTableRecord
100
AcDbBlockTableRecord
  2
block 15
340
0
102
{BLKREFS
331
AE
102
}
  0
BLOCK_RECORD
  5
C0
330
1
100
AcDbSymbolTableRecord
100
AcDbBlockTableRecord
  2
block 16
340
0
102
{BLKREFS
331
C1
102
}
  0
BLOCK_RECORD
  5
C4
330
1
100
AcDbSymbolTableRecord
100
AcDbBlockTableRecord
  2
block 17
340
0
102
{BLKREFS
331
C5
102
}
  0
BLOCK_RECORD
  5
CC
330
1
100
AcDbSymbolTableRecord
100
AcDbBlockTableRecord
  2
block 18
340
0
102
{BLKREFS
331
CD
102
}
  0
BLOCK_RECORD
  5
D4
330
1
100
AcDbSymbolTableRecord
100
AcDbBlockTableRecord
  2
block 19
340
0
102
{BLKREFS
331
D5
102
}
  0
BLOCK_RECORD
  5
DC
330
1
100
AcDbSymbolTableRecord
100
AcDbBlockTableRecord
  2
block 20
340
0
102
{BLKREFS
331
DD
102
}
  0
BLOCK_RECORD
  5
E4
330
1
100
AcDbSymbolTableRecord
100
AcDbBlockTableRecord
  2
block 21
340
0
102
{BLKREFS
331
E5
102
}
  0
BLOCK_RECORD
  5
EF
330
1
100
AcDbSymbolTableRecord
100
AcDbBlockTableRecord
  2
block 22
340
0
102
{BLKREFS
331
F0
102
}
  0
BLOCK_RECORD
  5
FA
330
1
100
AcDbSymbolTableRecord
100
AcDbBlockTableRecord
  2
block 23
340
0
102
{BLKREFS
331
FB
102
}
  0
BLOCK_RECORD
  5
100
330
1
100
AcDbSymbolTableRecord
100
AcDbBlockTableRecord
  2
block 24
340
0
102
{BLKREFS
331
101
102
}
  0
BLOCK_RECORD
  5
108
330
1
100
AcDbSymbolTableRecord
100
AcDbBlockTableRecord
  2
block 25
340
0
102
{BLKREFS
331
109
102
}
  0
BLOCK_RECORD
  5
110
330
1
100
AcDbSymbolTableRecord
100
AcDbBlockTableRecord
  2
block 26
340
0
102
{BLKREFS
331
111
102
}
  0
BLOCK_RECORD
  5
118
330
1
100
AcDbSymbolTableRecord
100
AcDbBlockTableRecord
  2
block 27
340
0
102
{BLKREFS
331
119
102
}
  0
BLOCK_RECORD
  5
11C
330
1
100
AcDbSymbolTableRecord
100
AcDbBlockTableRecord
  2
block 28
340
0
102
{BLKREFS
331
11D
102
}
  0
BLOCK_RECORD
  5
124
330
1
100
AcDbSymbolTableRecord
100
AcDbBlockTableRecord
  2
block 29
340
0
102
{BLKREFS
331
125
102
}
  0
BLOCK_RECORD
  5
12C
330
1
100
AcDbSymbolTableRecord
100
AcDbBlockTableRecord
  2
block 30
340
0
102
{BLKREFS
331
12D
102
}
  0
BLOCK_RECORD
  5
134
330
1
100
AcDbSymbolTableRecord
100
AcDbBlockTableRecord
  2
block 31
340
0
102
{BLKREFS
331
135
102
}
  0
BLOCK_RECORD
  5
13C
330
1
100
AcDbSymbolTableRecord
100
AcDbBlockTableRecord
  2
block 32
340
0
102
{BLKREFS
331
13D
102
}
  0
BLOCK_RECORD
  5
147
330
1
100
AcDbSymbolTableRecord
100
AcDbBlockTableRecord
  2
block 33
340
0
102
{BLKREFS
331
148
102
}
  0
BLOCK_RECORD
  5
152
330
1
100
AcDbSymbolTableRecord
100
AcDbBlockTableRecord
  2
block 34
340
0
102
{BLKREFS
331
153
102
}
  0
BLOCK_RECORD
  5
158
330
1
100
AcDbSymbolTableRecord
100
AcDbBlockTableRecord
  2
block 35
340
0
102
{BLKREFS
331
159
102
}
  0
BLOCK_RECORD
  5
160
330
1
100
AcDbSymbolTableRecord
100
AcDbBlockTableRecord
  2
block 36
340
0
102
{BLKREFS
331
161
102
}
  0
BLOCK_RECORD
  5
168
330
1
100
AcDbSymbolTableRecord
100
AcDbBlockTableRecord
  2
block 37
340
0
102
{BLKREFS
331
169
102
}
  0
BLOCK_RECORD
  5
170
330
1
100
AcDbSymbolTableRecord
100
AcDbBlockTableRecord
  2
block 38
340
0
102
{BLKREFS
331
171
102
}
  0
BLOCK_RECORD
  5
174
330
1
100
AcDbSymbolTableRecord
100
AcDbBlockTableRecord
  2
block 39
340
0
102
{BLKREFS
331
175
102
}
  0
BLOCK_RECORD
  5
17C
330
1
100
AcDbSymbolTableRecord
100
AcDbBlockTableRecord
  2
block 40
340
0
102
{BLKREFS
331
17D
102
}
  0
BLOCK_RECORD
  5
184
330
1
100
AcDbSymbolTableRecord
100
AcDbBlockTableRecord
  2
block 41
340
0
102
{BLKREFS
331
185
102
}
  0
BLOCK_RECORD
  5
18C
330
1
100
AcDbSymbolTableRecord
100
AcDbBlockTableRecord
  2
block 42
340
0
102
{BLKREFS
331
18D
102
}
  0
BLOCK_RECORD
  5
194
330
1
100
AcDbSymbolTableRecord
100
AcDbBlockTableRecord
  2
block 43
340
0
102
{BLKREFS
331
195
102
}
  0
BLOCK_RECORD
  5
19F
330
1
100
AcDbSymbolTableRecord
100
AcDbBlockTableRecord
  2
block 44
340
0
102
{BLKREFS
331
1A0
102
}
  0
BLOCK_RECORD
  5
1AA
330
1
100
AcDbSymbolTableRecord
100
AcDbBlockTableRecord
  2
block 45
340
0
102
{BLKREFS
331
1AB
102
}
  0
BLOCK_RECORD
  5
1AF
330
1
100
AcDbSymbolTableRecord
100
AcDbBlockTableRecord
  2
block 46
340
0
102
{BLKREFS
331
1B0
102
}
  0
BLOCK_RECORD
  5
1B7
330
1
100
AcDbSymbolTableRecord
100
AcDbBlockTableRecord
  2
block 47
340
0
102
{BLKREFS
331
1B8
102
}
  0
BLOCK_RECORD
  5
1BF
330
1
100
AcDbSymbolTableRecord
100
AcDbBlockTableRecord
  2
block 48
340
0
102
{BLKREFS
331
1C0
102
}
  0
BLOCK_RECORD
  5
1C7
330
1
100
AcDbSymbolTableRecord
100
AcDbBlockTableRecord
  2
block 49
340
0
102
{BLKREFS
331
1C8
102
}
  0
BLOCK_RECORD
  5
1CF
330
1
100
AcDbSymbolTableRecord
100
AcDbBlockTableRecord
  2
block 50
340
0
102
{BLKREFS
331
1D0
102
}
  0
BLOCK_RECORD
  5
1D4
330
1
100
AcDbSymbolTableRecord
100
AcDbBlockTableRecord
  2
block 51
340
0
102
{BLKREFS
331
1D5
102
}
  0
BLOCK_RECORD
  5
1D9
330
1
100
AcDbSymbolTableRecord
100
AcDbBlockTableRecord
  2
block 52
340
0
102
{BLKREFS
331
1DA
102
}
  0
BLOCK_RECORD
  5
1E1
330
1
100
AcDbSymbolTableRecord
100
AcDbBlockTableRecord
  2
block 53
340
0
102
{BLKREFS
331
1E2
102
}
  0
BLOCK_RECORD
  5
1E6
330
1
100
AcDbSymbolTableRecord
100
AcDbBlockTableRecord
  2
block 54
340
0
102
{BLKREFS
331
1E7
102
}
  0
BLOCK_RECORD
  5
1EE
330
1
100
AcDbSymbolTableRecord
100
AcDbBlockTableRecord
  2
block 55
340
0
102
{BLKREFS
331
1EF
102
}
  0
BLOCK_RECORD
  5
1F6
330
1
100
AcDbSymbolTableRecord
100
AcDbBlockTableRecord
  2
block 56
340
0
102
{BLKREFS
331
1F7
102
}
  0
BLOCK_RECORD
  5
1FE
330
1
100
AcDbSymbolTableRecord
100
AcDbBlockTableRecord
  2
block 57
340
0
102
{BLKREFS
331
1FF
102
}
  0
BLOCK_RECORD
  5
206
330
1
100
AcDbSymbolTableRecord
100
AcDbBlockTableRecord
  2
block 58
340
0
102
{BLKREFS
331
207
102
}
  0
BLOCK_RECORD
  5
20E
330
1
100
AcDbSymbolTableRecord
100
AcDbBlockTableRecord
  2
block 59
340
0
102
{BLKREFS
331
20F
102
}
  0
BLOCK_RECORD
  5
216
330
1
100
AcDbSymbolTableRecord
100
AcDbBlockTableRecord
  2
block 60
340
0
102
{BLKREFS
331
217
102
}
  0
BLOCK_RECORD
  5
21B
330
1
100
AcDbSymbolTableRecord
100
AcDbBlockTableRecord
  2
block 61
340
0
102
{BLKREFS
331
21C
102
}
  0
BLOCK_RECORD
  5
220
330
1
100
AcDbSymbolTableRecord
100
AcDbBlockTableRecord
  2
block 62
340
0
102
{BLKREFS
331
221
102
}
  0
BLOCK_RECORD
  5
225
330
1
100
AcDbSymbolTableRecord
100
AcDbBlockTableRecord
  2
block 63
340
0
102
{BLKREFS
331
226
102
}
  0
BLOCK_RECORD
  5
22B
330
1
100
AcDbSymbolTableRecord
100
AcDbBlockTableRecord
  2
block 64
340
0
102
{BLKREFS
331
22C
102
}
  0
BLOCK_RECORD
  5
230
330
1
100
AcDbSymbolTableRecord
100
AcDbBlockTableRecord
  2
block 65
340
0
102
{BLKREFS
331
231
102
}
  0
BLOCK_RECORD
  5
235
330
1
100
AcDbSymbolTableRecord
100
AcDbBlockTableRecord
  2
block 66
340
0
102
{BLKREFS
331
236
102
}
  0
BLOCK_RECORD
  5
23A
330
1
100
AcDbSymbolTableRecord
100
AcDbBlockTableRecord
  2
block 67
340
0
102
{BLKREFS
331
23B
102
}
  0
BLOCK_RECORD
  5
23F
330
1
100
AcDbSymbolTableRecord
100
AcDbBlockTableRecord
  2
block 68
340
0
102
{BLKREFS
331
240
102
}
  0
BLOCK_RECORD
  5
244
330
1
100
AcDbSymbolTableRecord
100
AcDbBlockTableRecord
  2
block 69
340
0
102
{BLKREFS
331
245
102
}
  0
BLOCK_RECORD
  5
249
330
1
100
AcDbSymbolTableRecord
100
AcDbBlockTableRecord
  2
block 70
340
0
102
{BLKREFS
331
24A
102
}
  0
BLOCK_RECORD
  5
251
330
1
100
AcDbSymbolTableRecord
100
AcDbBlockTableRecord
  2
block 71
340
0
102
{BLKREFS
331
252
102
}
  0
BLOCK_RECORD
  5
256
330
1
100
AcDbSymbolTableRecord
100
AcDbBlockTableRecord
  2
block 72
340
0
102
{BLKREFS
331
257
102
}
  0
BLOCK_RECORD
  5
25B
330
1
100
AcDbSymbolTableRecord
100
AcDbBlockTableRecord
  2
block 73
340
0
102
{BLKREFS
331
25C
102
}
  0
BLOCK_RECORD
  5
265
330
1
100
AcDbSymbolTableRecord
100
AcDbBlockTableRecord
  2
block 74
340
0
102
{BLKREFS
331
266
102
}
  0
BLOCK_RECORD
  5
26A
330
1
100
AcDbSymbolTableRecord
100
AcDbBlockTableRecord
  2
block 75
340
0
102
{BLKREFS
331
26B
102
}
  0
BLOCK_RECORD
  5
272
330
1
100
AcDbSymbolTableRecord
100
AcDbBlockTableRecord
  2
block 76
340
0
102
{BLKREFS
331
273
102
}
  0
BLOCK_RECORD
  5
277
330
1
100
AcDbSymbolTableRecord
100
AcDbBlockTableRecord
  2
block 77
340
0
102
{BLKREFS
331
278
102
}
  0
BLOCK_RECORD
  5
27C
330
1
100
AcDbSymbolTableRecord
100
AcDbBlockTableRecord
  2
block 78
340
0
102
{BLKREFS
331
27D
102
}
  0
BLOCK_RECORD
  5
284
330
1
100
AcDbSymbolTableRecord
100
AcDbBlockTableRecord
  2
block 79
340
0
102
{BLKREFS
331
285
102
}
  0
BLOCK_RECORD
  5
289
330
1
100
AcDbSymbolTableRecord
100
AcDbBlockTableRecord
  2
block 80
340
0
102
{BLKREFS
331
28A
102
}
  0
BLOCK_RECORD
  5
28E
330
1
100
AcDbSymbolTableRecord
100
AcDbBlockTableRecord
  2
block 81
340
0
102
{BLKREFS
331
28F
102
}
  0
BLOCK_RECORD
  5
293
330
1
100
AcDbSymbolTableRecord
100
AcDbBlockTableRecord
  2
block 82
340
0
102
{BLKREFS
331
294
102
}
  0
BLOCK_RECORD
  5
298
330
1
100
AcDbSymbolTableRecord
100
AcDbBlockTableRecord
  2
block 83
340
0
102
{BLKREFS
331
299
102
}
  0
BLOCK_RECORD
  5
2A0
330
1
100
AcDbSymbolTableRecord
100
AcDbBlockTableRecord
  2
block 84
340
0
102
{BLKREFS
331
2A1
102
}
  0
BLOCK_RECORD
  5
2A5
330
1
100
AcDbSymbolTableRecord
100
AcDbBlockTableRecord
  2
block 85
340
0
102
{BLKREFS
331
2A6
102
}
  0
BLOCK_RECORD
  5
2AA
330
1
100
AcDbSymbolTableRecord
100
AcDbBlockTableRecord
  2
block 86
340
0
102
{BLKREFS
331
2AB
102
}
  0
BLOCK_RECORD
  5
2AF
330
1
100
AcDbSymbolTableRecord
100
AcDbBlockTableRecord
  2
block 87
340
0
102
{BLKREFS
331
2B0
102
}
  0
BLOCK_RECORD
  5
2B4
330
1
100
AcDbSymbolTableRecord
100
AcDbBlockTableRecord
  2
block 88
340
0
102
{BLKREFS
331
2B5
102
}
  0
BLOCK_RECORD
  5
2B9
330
1
100
AcDbSymbolTableRecord
100
AcDbBlockTableRecord
  2
block 89
340
0
102
{BLKREFS
331
2BA
102
}
  0
BLOCK_RECORD
  5
2C1
330
1
100
AcDbSymbolTableRecord
100
AcDbBlockTableRecord
  2
block 90
340
0
102
{BLKREFS
331
2C2
102
}
  0
BLOCK_RECORD
  5
2C6
330
1
100
AcDbSymbolTableRecord
100
AcDbBlockTableRecord
  2
block 91
340
0
102
{BLKREFS
331
2C7
102
}
  0
ENDTAB
  0
ENDSEC
  0
SECTION
  2
BLOCKS
  0
BLOCK
  5
20
330
1F
100
AcDbEntity
  8
0
100
AcDbBlockBegin
  2
*Model_Space
 70
     0
 71
     0
 10
0.0
 20
0.0
 30
0.0
  3
*Model_Space
  1

  0
ENDBLK
  5
21
330
1F
100
AcDbEntity
  8
0
100
AcDbBlockEnd
  0
BLOCK
  5
1C
330
1B
100
AcDbEntity
 67
     1
  8
0
100
AcDbBlockBegin
  2
*Paper_Space
 70
     0
 71
     0
 10
0.0
 20
0.0
 30
0.0
  3
*Paper_Space
  1

  0
ENDBLK
  5
1D
330
1B
100
AcDbEntity
 67
     1
  8
0
100
AcDbBlockEnd
  0
BLOCK
  5
24
330
23
100
AcDbEntity
  8
0
100
AcDbBlockBegin
  2
*Paper_Space0
 70
     0
 71
     0
 10
0.0
 20
0.0
 30
0.0
  3
*Paper_Space0
  1

  0
ENDBLK
  5
25
330
23
100
AcDbEntity
  8
0
100
AcDbBlockEnd
  0
BLOCK
  5
3E
330
3C
100
AcDbEntity
  8
0
100
AcDbBlockBegin
  2
block 2
 70
     0
 71
     0
 10
0.0
 20
0.0
 30
0.0
  3
block 2
  1

  0
POLYLINE
  5
40
330
3C
100
AcDbEntity
  8
DIMLAY
 62
     7
420
 16777215
370
    35
100
AcDb2dPolyline
 66
     1
 10
0.0
 20
0.0
 30
0.0
  0
VERTEX
  5
41
330
40
100
AcDbEntity
  8
DIMLAY
 62
     7
420
 16777215
370
    35
100
AcDbVertex
100
AcDb2dVertex
 10
8.425048828125
 20
10.40888807508681
 30
0.0
  0
VERTEX
  5
42
330
40
100
AcDbEntity
  8
DIMLAY
 62
     7
420
 16777215
370
    35
100
AcDbVertex
100
AcDb2dVertex
 10
8.455098470052082
 20
10.33355712890625
 30
0.0
  0
VERTEX
  5
43
330
40
100
AcDbEntity
  8
DIMLAY
 62
     7
420
 16777215
370
    35
100
AcDbVertex
100
AcDb2dVertex
 10
8.402242024739582
 20
10.39506700303819
 30
0.0
  0
VERTEX
  5
44
330
40
100
AcDbEntity
  8
DIMLAY
 62
     7
420
 16777215
370
    35
100
AcDbVertex
100
AcDb2dVertex
 10
8.425048828125
 20
10.40888807508681
 30
0.0
  0
SEQEND
  5
45
330
40
100
AcDbEntity
  8
DIMLAY
370
    35
  0
HATCH
  5
46
330
3C
100
AcDbEntity
  8
DIMLAY
 62
     7
420
 16777215
100
AcDbHatch
 10
0.0
 20
0.0
 30
0.0
210
0.0
220
0.0
230
1.0
  2
SOLID
 70
     1
 71
     0
 91
        1
 92
        1
 93
        3
 72
     1
 10
8.425048828125
 20
10.40888807508681
 11
8.455098470052082
 21
10.33355712890625
 72
     1
 10
8.455098470052082
 20
10.33355712890625
 11
8.402242024739582
 21
10.39506700303819
 72
     1
 10
8.402242024739582
 20
10.39506700303819
 11
8.425048828125
 21
10.40888807508681
 97
        0
 75
     2
 76
     1
 98
        0
  0
POLYLINE
  5
47
330
3C
100
AcDbEntity
  8
DIMLAY
 62
     7
420
 16777215
370
    25
100
AcDb2dPolyline
 66
     1
 10
0.0
 20
0.0
 30
0.0
  0
VERTEX
  5
48
330
47
100
AcDbEntity
  8
DIMLAY
 62
     7
420
 16777215
370
    25
100
AcDbVertex
100
AcDb2dVertex
 10
8.413642035590277
 20
10.4019775390625
 30
0.0
  0
VERTEX
  5
49
330
47
100
AcDbEntity
  8
DIMLAY
 62
     7
420
 16777215
370
    25
100
AcDbVertex
100
AcDb2dVertex
 10
7.990010579427083
 20
11.10118950737847
 30
0.0
  0
SEQEND
  5
4A
330
47
100
AcDbEntity
  8
DIMLAY
370
    25
  0
POLYLINE
  5
4B
330
3C
100
AcDbEntity
  8
DIMLAY
 62
     7
420
 16777215
370
    25
100
AcDb2dPolyline
 66
     1
 10
0.0
 20
0.0
 30
0.0
  0
VERTEX
  5
4C
330
4B
100
AcDbEntity
  8
DIMLAY
 62
     7
420
 16777215
370
    25
100
AcDbVertex
100
AcDb2dVertex
 10
7.990010579427083
 20
11.10118950737847
 30
0.0
  0
VERTEX
  5
4D
330
4B
100
AcDbEntity
  8
DIMLAY
 62
     7
420
 16777215
370
    25
100
AcDbVertex
100
AcDb2dVertex
 10
7.865010579427083
 20
11.10118950737847
 30
0.0
  0
SEQEND
  5
4E
330
4B
100
AcDbEntity
  8
DIMLAY
370
    25
  0
ENDBLK
  5
3F
330
3C
100
AcDbEntity
  8
0
100
AcDbBlockEnd
  0
BLOCK
  5
51
330
4F
100
AcDbEntity
  8
0
100
AcDbBlockBegin
  2
block 3
 70
     0
 71
     0
 10
0.0
 20
0.0
 30
0.0
  3
block 3
  1

  0
INSERT
  5
54
330
4F
100
AcDbEntity
  8
DIMLAY
100
AcDbBlockReference
  2
block 4
 10
0.0
 20
0.0
 30
0.0
  0
INSERT
  5
5C
330
4F
100
AcDbEntity
  8
DIMLAY
100
AcDbBlockReference
  2
block 5
 10
0.0
 20
0.0
 30
0.0
  0
INSERT
  5
64
330
4F
100
AcDbEntity
  8
DIMLAY
100
AcDbBlockReference
  2
block 6
 10
0.0
 20
0.0
 30
0.0
  0
INSERT
  5
6C
330
4F
100
AcDbEntity
  8
DIMLAY
100
AcDbBlockReference
  2
block 7
 10
0.0
 20
0.0
 30
0.0
  0
INSERT
  5
74
330
4F
100
AcDbEntity
  8
DIMLAY
100
AcDbBlockReference
  2
block 8
 10
0.0
 20
0.0
 30
0.0
  0
INSERT
  5
7F
330
4F
100
AcDbEntity
  8
DIMLAY
100
AcDbBlockReference
  2
block 9
 10
0.0
 20
0.0
 30
0.0
  0
INSERT
  5
8A
330
4F
100
AcDbEntity
  8
DIMLAY
100
AcDbBlockReference
  2
block 10
 10
0.0
 20
0.0
 30
0.0
  0
INSERT
  5
90
330
4F
100
AcDbEntity
  8
DIMLAY
100
AcDbBlockReference
  2
block 11
 10
0.0
 20
0.0
 30
0.0
  0
INSERT
  5
98
330
4F
100
AcDbEntity
  8
DIMLAY
100
AcDbBlockReference
  2
block 12
 10
0.0
 20
0.0
 30
0.0
  0
INSERT
  5
A0
330
4F
100
AcDbEntity
  8
DIMLAY
100
AcDbBlockReference
  2
block 13
 10
0.0
 20
0.0
 30
0.0
  0
ENDBLK
  5
52
330
4F
100
AcDbEntity
  8
0
100
AcDbBlockEnd
  0
BLOCK
  5
55
330
53
100
AcDbEntity
  8
0
100
AcDbBlockBegin
  2
block 4
 70
     0
 71
     0
 10
0.0
 20
0.0
 30
0.0
  3
block 4
  1

  0
POLYLINE
  5
57
330
53
100
AcDbEntity
  8
DIMLAY
 62
     7
420
 16777215
370
    25
100
AcDb2dPolyline
 66
     1
 10
0.0
 20
0.0
 30
0.0
  0
VERTEX
  5
58
330
57
100
AcDbEntity
  8
DIMLAY
 62
     7
420
 16777215
370
    25
100
AcDbVertex
100
AcDb2dVertex
 10
8.289510091145832
 20
10.55118815104167
 30
0.0
  0
VERTEX
  5
59
330
57
100
AcDbEntity
  8
DIMLAY
 62
     7
420
 16777215
370
    25
100
AcDbVertex
100
AcDb2dVertex
 10
7.472507052951388
 20
10.55118815104167
 30
0.0
  0
SEQEND
  5
5A
330
57
100
AcDbEntity
  8
DIMLAY
370
    25
  0
ENDBLK
  5
56
330
53
100
AcDbEntity
  8
0
100
AcDbBlockEnd
  0
BLOCK
  5
5D
330
5B
100
AcDbEntity
  8
0
100
AcDbBlockBegin
  2
block 5
 70
     0
 71
     0
 10
0.0
 20
0.0
 30
0.0
  3
block 5
  1

  0
POLYLINE
  5
5F
330
5B
100
AcDbEntity
  8
DIMLAY
 62
     7
420
 16777215
370
    25
100
AcDb2dPolyline
 66
     1
 10
0.0
 20
0.0
 30
0.0
  0
VERTEX
  5
60
330
5F
100
AcDbEntity
  8
DIMLAY
 62
     7
420
 16777215
370
    25
100
AcDbVertex
100
AcDb2dVertex
 10
8.289510091145832
 20
7.651190863715278
 30
0.0
  0
VERTEX
  5
61
330
5F
100
AcDbEntity
  8
DIMLAY
 62
     7
420
 16777215
370
    25
100
AcDbVertex
100
AcDb2dVertex
 10
7.472507052951388
 20
7.651190863715278
 30
0.0
  0
SEQEND
  5
62
330
5F
100
AcDbEntity
  8
DIMLAY
370
    25
  0
ENDBLK
  5
5E
330
5B
100
AcDbEntity
  8
0
100
AcDbBlockEnd
  0
BLOCK
  5
65
330
63
100
AcDbEntity
  8
0
100
AcDbBlockBegin
  2
block 6
 70
     0
 71
     0
 10
0.0
 20
0.0
 30
0.0
  3
block 6
  1

  0
POLYLINE
  5
67
330
63
100
AcDbEntity
  8
DIMLAY
 62
     7
420
 16777215
370
    25
100
AcDb2dPolyline
 66
     1
 10
0.0
 20
0.0
 30
0.0
  0
VERTEX
  5
68
330
67
100
AcDbEntity
  8
DIMLAY
 62
     7
420
 16777215
370
    25
100
AcDbVertex
100
AcDb2dVertex
 10
7.552510579427083
 20
10.47119140625
 30
0.0
  0
VERTEX
  5
69
330
67
100
AcDbEntity
  8
DIMLAY
 62
     7
420
 16777215
370
    25
100
AcDbVertex
100
AcDb2dVertex
 10
7.552510579427083
 20
9.304050021701388
 30
0.0
  0
SEQEND
  5
6A
330
67
100
AcDbEntity
  8
DIMLAY
370
    25
  0
ENDBLK
  5
66
330
63
100
AcDbEntity
  8
0
100
AcDbBlockEnd
  0
BLOCK
  5
6D
330
6B
100
AcDbEntity
  8
0
100
AcDbBlockBegin
  2
block 7
 70
     0
 71
     0
 10
0.0
 20
0.0
 30
0.0
  3
block 7
  1

  0
POLYLINE
  5
6F
330
6B
100
AcDbEntity
  8
DIMLAY
 62
     7
420
 16777215
370
    25
100
AcDb2dPolyline
 66
     1
 10
0.0
 20
0.0
 30
0.0
  0
VERTEX
  5
70
330
6F
100
AcDbEntity
  8
DIMLAY
 62
     7
420
 16777215
370
    25
100
AcDbVertex
100
AcDb2dVertex
 10
7.552510579427083
 20
7.731187608506944
 30
0.0
  0
VERTEX
  5
71
330
6F
100
AcDbEntity
  8
DIMLAY
 62
     7
420
 16777215
370
    25
100
AcDbVertex
100
AcDb2dVertex
 10
7.552510579427083
 20
8.898328993055555
 30
0.0
  0
SEQEND
  5
72
330
6F
100
AcDbEntity
  8
DIMLAY
370
    25
  0
ENDBLK
  5
6E
330
6B
100
AcDbEntity
  8
0
100
AcDbBlockEnd
  0
BLOCK
  5
75
330
73
100
AcDbEntity
  8
0
100
AcDbBlockBegin
  2
block 8
 70
     0
 71
     0
 10
0.0
 20
0.0
 30
0.0
  3
block 8
  1

  0
POLYLINE
  5
77
330
73
100
AcDbEntity
  8
DIMLAY
 62
     7
420
 16777215
370
    35
100
AcDb2dPolyline
 66
     1
 10
0.0
 20
0.0
 30
0.0
  0
VERTEX
  5
78
330
77
100
AcDbEntity
  8
DIMLAY
 62
     7
420
 16777215
370
    35
100
AcDbVertex
100
AcDb2dVertex
 10
7.539171006944444
 20
10.47119140625
 30
0.0
  0
VERTEX
  5
79
330
77
100
AcDbEntity
  8
DIMLAY
 62
     7
420
 16777215
370
    35
100
AcDbVertex
100
AcDb2dVertex
 10
7.565843370225694
 20
10.47119140625
 30
0.0
  0
VERTEX
  5
7A
330
77
100
AcDbEntity
  8
DIMLAY
 62
     7
420
 16777215
370
    35
100
AcDbVertex
100
AcDb2dVertex
 10
7.552510579427083
 20
10.55118815104167
 30
0.0
  0
VERTEX
  5
7B
330
77
100
AcDbEntity
  8
DIMLAY
 62
     7
420
 16777215
370
    35
100
AcDbVertex
100
AcDb2dVertex
 10
7.539171006944444
 20
10.47119140625
 30
0.0
  0
SEQEND
  5
7C
330
77
100
AcDbEntity
  8
DIMLAY
370
    35
  0
HATCH
  5
7D
330
73
100
AcDbEntity
  8
DIMLAY
 62
     7
420
 16777215
100
AcDbHatch
 10
0.0
 20
0.0
 30
0.0
210
0.0
220
0.0
230
1.0
  2
SOLID
 70
     1
 71
     0
 91
        1
 92
        1
 93
        3
 72
     1
 10
7.539171006944444
 20
10.47119140625
 11
7.565843370225694
 21
10.47119140625
 72
     1
 10
7.565843370225694
 20
10.47119140625
 11
7.552510579427083
 21
10.55118815104167
 72
     1
 10
7.552510579427083
 20
10.55118815104167
 11
7.539171006944444
 21
10.47119140625
 97
        0
 75
     2
 76
     1
 98
        0
  0
ENDBLK
  5
76
330
73
100
AcDbEntity
  8
0
100
AcDbBlockEnd
  0
BLOCK
  5
80
330
7E
100
AcDbEntity
  8
0
100
AcDbBlockBegin
  2
block 9
 70
     0
 71
     0
 10
0.0
 20
0.0
 30
0.0
  3
block 9
  1

  0
POLYLINE
  5
82
330
7E
100
AcDbEntity
  8
DIMLAY
 62
     7
420
 16777215
370
    35
100
AcDb2dPolyline
 66
     1
 10
0.0
 20
0.0
 30
0.0
  0
VERTEX
  5
83
330
82
100
AcDbEntity
  8
DIMLAY
 62
     7
420
 16777215
370
    35
100
AcDbVertex
100
AcDb2dVertex
 10
7.539171006944444
 20
7.731187608506944
 30
0.0
  0
VERTEX
  5
84
330
82
100
AcDbEntity
  8
DIMLAY
 62
     7
420
 16777215
370
    35
100
AcDbVertex
100
AcDb2dVertex
 10
7.565843370225694
 20
7.731187608506944
 30
0.0
  0
VERTEX
  5
85
330
82
100
AcDbEntity
  8
DIMLAY
 62
     7
420
 16777215
370
    35
100
AcDbVertex
100
AcDb2dVertex
 10
7.552510579427083
 20
7.651190863715278
 30
0.0
  0
VERTEX
  5
86
330
82
100
AcDbEntity
  8
DIMLAY
 62
     7
420
 16777215
370
    35
100
AcDbVertex
100
AcDb2dVertex
 10
7.539171006944444
 20
7.731187608506944
 30
0.0
  0
SEQEND
  5
87
330
82
100
AcDbEntity
  8
DIMLAY
370
    35
  0
HATCH
  5
88
330
7E
100
AcDbEntity
  8
DIMLAY
 62
     7
420
 16777215
100
AcDbHatch
 10
0.0
 20
0.0
 30
0.0
210
0.0
220
0.0
230
1.0
  2
SOLID
 70
     1
 71
     0
 91
        1
 92
        1
 93
        3
 72
     1
 10
7.539171006944444
 20
7.731187608506944
 11
7.565843370225694
 21
7.731187608506944
 72
     1
 10
7.565843370225694
 20
7.731187608506944
 11
7.552510579427083
 21
7.651190863715278
 72
     1
 10
7.552510579427083
 20
7.651190863715278
 11
7.539171006944444
 21
7.731187608506944
 97
        0
 75
     2
 76
     1
 98
        0
  0
ENDBLK
  5
81
330
7E
100
AcDbEntity
  8
0
100
AcDbBlockEnd
  0
BLOCK
  5
8B
330
89
100
AcDbEntity
  8
0
100
AcDbBlockBegin
  2
block 10
 70
     0
 71
     0
 10
0.0
 20
0.0
 30
0.0
  3
block 10
  1

  0
MTEXT
  5
8D
330
89
100
AcDbEntity
  8
DIMLAY
 62
     7
420
 16777215
100
AcDbMText
 10
7.302510579427083
 20
9.134521484375
 30
0.0
 40
0.0999999962912665
 41
0.0
 71
     7
 72
     1
  1
\fMyriad Pro|b0|i0|c0|p34;\W1;2.900"
 73
     1
 44
1.0
  0
MTEXT
  5
8E
330
89
100
AcDbEntity
  8
DIMLAY
 62
     7
420
 16777215
100
AcDbMText
 10
7.197747124565971
 20
8.967854817708332
 30
0.0
 40
0.0999999962912665
 41
0.0
 71
     7
 72
     1
  1
\fMyriad Pro|b0|i0|c0|p34;\W1;73.66mm
 73
     1
 44
1.0
  0
ENDBLK
  5
8C
330
89
100
AcDbEntity
  8
0
100
AcDbBlockEnd
  0
BLOCK
  5
91
330
8F
100
AcDbEntity
  8
0
100
AcDbBlockBegin
  2
block 11
 70
     0
 71
     0
 10
0.0
 20
0.0
 30
0.0
  3
block 11
  1

  0
POLYLINE
  5
93
330
8F
100
AcDbEntity
  8
DIMLAY
370
     0
100
AcDb2dPolyline
 66
     1
 10
0.0
 20
0.0
 30
0.0
  0
VERTEX
  5
94
330
93
100
AcDbEntity
  8
DIMLAY
370
     0
100
AcDbVertex
100
AcDb2dVertex
 10
8.35250515407986
 20
10.55118815104167
 30
0.0
  0
VERTEX
  5
95
330
93
100
AcDbEntity
  8
DIMLAY
370
     0
100
AcDbVertex
100
AcDb2dVertex
 10
8.35250515407986
 20
10.55118815104167
 30
0.0
  0
SEQEND
  5
96
330
93
100
AcDbEntity
  8
DIMLAY
370
     0
  0
ENDBLK
  5
92
330
8F
100
AcDbEntity
  8
0
100
AcDbBlockEnd
  0
BLOCK
  5
99
330
97
100
AcDbEntity
  8
0
100
AcDbBlockBegin
  2
block 12
 70
     0
 71
     0
 10
0.0
 20
0.0
 30
0.0
  3
block 12
  1

  0
POLYLINE
  5
9B
330
97
100
AcDbEntity
  8
DIMLAY
370
     0
100
AcDb2dPolyline
 66
     1
 10
0.0
 20
0.0
 30
0.0
  0
VERTEX
  5
9C
330
9B
100
AcDbEntity
  8
DIMLAY
370
     0
100
AcDbVertex
100
AcDb2dVertex
 10
8.35250515407986
 20
7.651190863715278
 30
0.0
  0
VERTEX
  5
9D
330
9B
100
AcDbEntity
  8
DIMLAY
370
     0
100
AcDbVertex
100
AcDb2dVertex
 10
8.35250515407986
 20
7.651190863715278
 30
0.0
  0
SEQEND
  5
9E
330
9B
100
AcDbEntity
  8
DIMLAY
370
     0
  0
ENDBLK
  5
9A
330
97
100
AcDbEntity
  8
0
100
AcDbBlockEnd
  0
BLOCK
  5
A1
330
9F
100
AcDbEntity
  8
0
100
AcDbBlockBegin
  2
block 13
 70
     0
 71
     0
 10
0.0
 20
0.0
 30
0.0
  3
block 13
  1

  0
POLYLINE
  5
A3
330
9F
100
AcDbEntity
  8
DIMLAY
370
     0
100
AcDb2dPolyline
 66
     1
 10
0.0
 20
0.0
 30
0.0
  0
VERTEX
  5
A4
330
A3
100
AcDbEntity
  8
DIMLAY
370
     0
100
AcDbVertex
100
AcDb2dVertex
 10
7.552510579427083
 20
7.651190863715278
 30
0.0
  0
VERTEX
  5
A5
330
A3
100
AcDbEntity
  8
DIMLAY
370
     0
100
AcDbVertex
100
AcDb2dVertex
 10
7.552510579427083
 20
7.651190863715278
 30
0.0
  0
SEQEND
  5
A6
330
A3
100
AcDbEntity
  8
DIMLAY
370
     0
  0
ENDBLK
  5
A2
330
9F
100
AcDbEntity
  8
0
100
AcDbBlockEnd
  0
BLOCK
  5
A9
330
A7
100
AcDbEntity
  8
0
100
AcDbBlockBegin
  2
block 14
 70
     0
 71
     0
 10
0.0
 20
0.0
 30
0.0
  3
block 14
  1

  0
MTEXT
  5
AB
330
A7
100
AcDbEntity
  8
DIMLAY
 62
     7
420
 16777215
100
AcDbMText
 10
6.774766710069444
 20
11.1488037109375
 30
0.0
 40
0.0800000042385525
 41
0.0
 71
     7
 72
     1
  1
\fMyriad Pro|b0|i0|c0|p34;\W1;MOUNTING HOLE
 73
     1
 44
1.0
  0
MTEXT
  5
AC
330
A7
100
AcDbEntity
  8
DIMLAY
 62
     7
420
 16777215
100
AcDbMText
 10
6.668104383680555
 20
11.000244140625
 30
0.0
 40
0.0800000042385525
 41
0.0
 71
     7
 72
     1
  1
\fMyriad Pro|b0|i0|c0|p34;\W1;FOR 1/4" SCREW
 73
     1
 44
1.0
  0
ENDBLK
  5
AA
330
A7
100
AcDbEntity
  8
0
100
AcDbBlockEnd
  0
BLOCK
  5
AF
330
AD
100
AcDbEntity
  8
0
100
AcDbBlockBegin
  2
block 15
 70
     0
 71
     0
 10
0.0
 20
0.0
 30
0.0
  3
block 15
  1

  0
POLYLINE
  5
B1
330
AD
100
AcDbEntity
  8
DIMLAY
 62
     7
420
 16777215
370
    35
100
AcDb2dPolyline
 66
     1
 10
0.0
 20
0.0
 30
0.0
  0
VERTEX
  5
B2
330
B1
100
AcDbEntity
  8
DIMLAY
 62
     7
420
 16777215
370
    35
100
AcDbVertex
100
AcDb2dVertex
 10
9.692328559027777
 20
10.39719645182292
 30
0.0
  0
VERTEX
  5
B3
330
B1
100
AcDbEntity
  8
DIMLAY
 62
     7
420
 16777215
370
    35
100
AcDbVertex
100
AcDb2dVertex
 10
9.644205729166666
 20
10.3319091796875
 30
0.0
  0
VERTEX
  5
B4
330
B1
100
AcDbEntity
  8
DIMLAY
 62
     7
420
 16777215
370
    35
100
AcDbVertex
100
AcDb2dVertex
 10
9.668551974826388
 20
10.40927463107639
 30
0.0
  0
VERTEX
  5
B5
330
B1
100
AcDbEntity
  8
DIMLAY
 62
     7
420
 16777215
370
    35
100
AcDbVertex
100
AcDb2dVertex
 10
9.692328559027777
 20
10.39719645182292
 30
0.0
  0
SEQEND
  5
B6
330
B1
100
AcDbEntity
  8
DIMLAY
370
    35
  0
HATCH
  5
B7
330
AD
100
AcDbEntity
  8
DIMLAY
 62
     7
420
 16777215
100
AcDbHatch
 10
0.0
 20
0.0
 30
0.0
210
0.0
220
0.0
230
1.0
  2
SOLID
 70
     1
 71
     0
 91
        1
 92
        1
 93
        3
 72
     1
 10
9.692328559027777
 20
10.39719645182292
 11
9.644205729166666
 21
10.3319091796875
 72
     1
 10
9.644205729166666
 20
10.3319091796875
 11
9.668551974826388
 21
10.40927463107639
 72
     1
 10
9.668551974826388
 20
10.40927463107639
 11
9.692328559027777
 21
10.39719645182292
 97
        0
 75
     2
 76
     1
 98
        0
  0
POLYLINE
  5
B8
330
AD
100
AcDbEntity
  8
DIMLAY
 62
     7
420
 16777215
370
    25
100
AcDb2dPolyline
 66
     1
 10
0.0
 20
0.0
 30
0.0
  0
VERTEX
  5
B9
330
B8
100
AcDbEntity
  8
DIMLAY
 62
     7
420
 16777215
370
    25
100
AcDbVertex
100
AcDb2dVertex
 10
9.680433485243055
 20
10.40323893229167
 30
0.0
  0
VERTEX
  5
BA
330
B8
100
AcDbEntity
  8
DIMLAY
 62
     7
420
 16777215
370
    25
100
AcDbVertex
100
AcDb2dVertex
 10
10.03500705295139
 20
11.10118950737847
 30
0.0
  0
SEQEND
  5
BB
330
B8
100
AcDbEntity
  8
DIMLAY
370
    25
  0
POLYLINE
  5
BC
330
AD
100
AcDbEntity
  8
DIMLAY
 62
     7
420
 16777215
370
    25
100
AcDb2dPolyline
 66
     1
 10
0.0
 20
0.0
 30
0.0
  0
VERTEX
  5
BD
330
BC
100
AcDbEntity
  8
DIMLAY
 62
     7
420
 16777215
370
    25
100
AcDbVertex
100
AcDb2dVertex
 10
10.03500705295139
 20
11.10118950737847
 30
0.0
  0
VERTEX
  5
BE
330
BC
100
AcDbEntity
  8
DIMLAY
 62
     7
420
 16777215
370
    25
100
AcDbVertex
100
AcDb2dVertex
 10
10.11500379774306
 20
11.10118950737847
 30
0.0
  0
SEQEND
  5
BF
330
BC
100
AcDbEntity
  8
DIMLAY
370
    25
  0
ENDBLK
  5
B0
330
AD
100
AcDbEntity
  8
0
100
AcDbBlockEnd
  0
BLOCK
  5
C2
330
C0
100
AcDbEntity
  8
0
100
AcDbBlockBegin
  2
block 16
 70
     0
 71
     0
 10
0.0
 20
0.0
 30
0.0
  3
block 16
  1

  0
INSERT
  5
C5
330
C0
100
AcDbEntity
  8
DIMLAY
100
AcDbBlockReference
  2
block 17
 10
0.0
 20
0.0
 30
0.0
  0
INSERT
  5
CD
330
C0
100
AcDbEntity
  8
DIMLAY
100
AcDbBlockReference
  2
block 18
 10
0.0
 20
0.0
 30
0.0
  0
INSERT
  5
D5
330
C0
100
AcDbEntity
  8
DIMLAY
100
AcDbBlockReference
  2
block 19
 10
0.0
 20
0.0
 30
0.0
  0
INSERT
  5
DD
330
C0
100
AcDbEntity
  8
DIMLAY
100
AcDbBlockReference
  2
block 20
 10
0.0
 20
0.0
 30
0.0
  0
INSERT
  5
E5
330
C0
100
AcDbEntity
  8
DIMLAY
100
AcDbBlockReference
  2
block 21
 10
0.0
 20
0.0
 30
0.0
  0
INSERT
  5
F0
330
C0
100
AcDbEntity
  8
DIMLAY
100
AcDbBlockReference
  2
block 22
 10
0.0
 20
0.0
 30
0.0
  0
INSERT
  5
FB
330
C0
100
AcDbEntity
  8
DIMLAY
100
AcDbBlockReference
  2
block 23
 10
0.0
 20
0.0
 30
0.0
  0
INSERT
  5
101
330
C0
100
AcDbEntity
  8
DIMLAY
100
AcDbBlockReference
  2
block 24
 10
0.0
 20
0.0
 30
0.0
  0
INSERT
  5
109
330
C0
100
AcDbEntity
  8
DIMLAY
100
AcDbBlockReference
  2
block 25
 10
0.0
 20
0.0
 30
0.0
  0
INSERT
  5
111
330
C0
100
AcDbEntity
  8
DIMLAY
100
AcDbBlockReference
  2
block 26
 10
0.0
 20
0.0
 30
0.0
  0
ENDBLK
  5
C3
330
C0
100
AcDbEntity
  8
0
100
AcDbBlockEnd
  0
BLOCK
  5
C6
330
C4
100
AcDbEntity
  8
0
100
AcDbBlockBegin
  2
block 17
 70
     0
 71
     0
 10
0.0
 20
0.0
 30
0.0
  3
block 17
  1

  0
POLYLINE
  5
C8
330
C4
100
AcDbEntity
  8
DIMLAY
 62
     7
420
 16777215
370
    25
100
AcDb2dPolyline
 66
     1
 10
0.0
 20
0.0
 30
0.0
  0
VERTEX
  5
C9
330
C8
100
AcDbEntity
  8
DIMLAY
 62
     7
420
 16777215
370
    25
100
AcDbVertex
100
AcDb2dVertex
 10
8.527506510416666
 20
7.600694444444444
 30
0.0
  0
VERTEX
  5
CA
330
C8
100
AcDbEntity
  8
DIMLAY
 62
     7
420
 16777215
370
    25
100
AcDbVertex
100
AcDb2dVertex
 10
8.527506510416666
 20
7.191189236111111
 30
0.0
  0
SEQEND
  5
CB
330
C8
100
AcDbEntity
  8
DIMLAY
370
    25
  0
ENDBLK
  5
C7
330
C4
100
AcDbEntity
  8
0
100
AcDbBlockEnd
  0
BLOCK
  5
CE
330
CC
100
AcDbEntity
  8
0
100
AcDbBlockBegin
  2
block 18
 70
     0
 71
     0
 10
0.0
 20
0.0
 30
0.0
  3
block 18
  1

  0
POLYLINE
  5
D0
330
CC
100
AcDbEntity
  8
DIMLAY
 62
     7
420
 16777215
370
    25
100
AcDb2dPolyline
 66
     1
 10
0.0
 20
0.0
 30
0.0
  0
VERTEX
  5
D1
330
D0
100
AcDbEntity
  8
DIMLAY
 62
     7
420
 16777215
370
    25
100
AcDbVertex
100
AcDb2dVertex
 10
9.577501085069445
 20
7.78369140625
 30
0.0
  0
VERTEX
  5
D2
330
D0
100
AcDbEntity
  8
DIMLAY
 62
     7
420
 16777215
370
    25
100
AcDbVertex
100
AcDb2dVertex
 10
9.577501085069445
 20
7.191189236111111
 30
0.0
  0
SEQEND
  5
D3
330
D0
100
AcDbEntity
  8
DIMLAY
370
    25
  0
ENDBLK
  5
CF
330
CC
100
AcDbEntity
  8
0
100
AcDbBlockEnd
  0
BLOCK
  5
D6
330
D4
100
AcDbEntity
  8
0
100
AcDbBlockBegin
  2
block 19
 70
     0
 71
     0
 10
0.0
 20
0.0
 30
0.0
  3
block 19
  1

  0
POLYLINE
  5
D8
330
D4
100
AcDbEntity
  8
DIMLAY
 62
     7
420
 16777215
370
    25
100
AcDb2dPolyline
 66
     1
 10
0.0
 20
0.0
 30
0.0
  0
VERTEX
  5
D9
330
D8
100
AcDbEntity
  8
DIMLAY
 62
     7
420
 16777215
370
    25
100
AcDbVertex
100
AcDb2dVertex
 10
8.60751003689236
 20
7.271185980902778
 30
0.0
  0
VERTEX
  5
DA
330
D8
100
AcDbEntity
  8
DIMLAY
 62
     7
420
 16777215
370
    25
100
AcDbVertex
100
AcDb2dVertex
 10
9.497504340277777
 20
7.271185980902778
 30
0.0
  0
SEQEND
  5
DB
330
D8
100
AcDbEntity
  8
DIMLAY
370
    25
  0
ENDBLK
  5
D7
330
D4
100
AcDbEntity
  8
0
100
AcDbBlockEnd
  0
BLOCK
  5
DE
330
DC
100
AcDbEntity
  8
0
100
AcDbBlockBegin
  2
block 20
 70
     0
 71
     0
 10
0.0
 20
0.0
 30
0.0
  3
block 20
  1

  0
POLYLINE
  5
E0
330
DC
100
AcDbEntity
  8
DIMLAY
 62
     7
420
 16777215
370
    25
100
AcDb2dPolyline
 66
     1
 10
0.0
 20
0.0
 30
0.0
  0
VERTEX
  5
E1
330
E0
100
AcDbEntity
  8
DIMLAY
 62
     7
420
 16777215
370
    25
100
AcDbVertex
100
AcDb2dVertex
 10
9.577501085069445
 20
7.271185980902778
 30
0.0
  0
VERTEX
  5
E2
330
E0
100
AcDbEntity
  8
DIMLAY
 62
     7
420
 16777215
370
    25
100
AcDbVertex
100
AcDb2dVertex
 10
10.57808430989583
 20
7.271185980902778
 30
0.0
  0
SEQEND
  5
E3
330
E0
100
AcDbEntity
  8
DIMLAY
370
    25
  0
ENDBLK
  5
DF
330
DC
100
AcDbEntity
  8
0
100
AcDbBlockEnd
  0
BLOCK
  5
E6
330
E4
100
AcDbEntity
  8
0
100
AcDbBlockBegin
  2
block 21
 70
     0
 71
     0
 10
0.0
 20
0.0
 30
0.0
  3
block 21
  1

  0
POLYLINE
  5
E8
330
E4
100
AcDbEntity
  8
DIMLAY
 62
     7
420
 16777215
370
    35
100
AcDb2dPolyline
 66
     1
 10
0.0
 20
0.0
 30
0.0
  0
VERTEX
  5
E9
330
E8
100
AcDbEntity
  8
DIMLAY
 62
     7
420
 16777215
370
    35
100
AcDbVertex
100
AcDb2dVertex
 10
8.60751003689236
 20
7.284518771701388
 30
0.0
  0
VERTEX
  5
EA
330
E8
100
AcDbEntity
  8
DIMLAY
 62
     7
420
 16777215
370
    35
100
AcDbVertex
100
AcDb2dVertex
 10
8.60751003689236
 20
7.257853190104166
 30
0.0
  0
VERTEX
  5
EB
330
E8
100
AcDbEntity
  8
DIMLAY
 62
     7
420
 16777215
370
    35
100
AcDbVertex
100
AcDb2dVertex
 10
8.527506510416666
 20
7.271185980902778
 30
0.0
  0
VERTEX
  5
EC
330
E8
100
AcDbEntity
  8
DIMLAY
 62
     7
420
 16777215
370
    35
100
AcDbVertex
100
AcDb2dVertex
 10
8.60751003689236
 20
7.284518771701388
 30
0.0
  0
SEQEND
  5
ED
330
E8
100
AcDbEntity
  8
DIMLAY
370
    35
  0
HATCH
  5
EE
330
E4
100
AcDbEntity
  8
DIMLAY
 62
     7
420
 16777215
100
AcDbHatch
 10
0.0
 20
0.0
 30
0.0
210
0.0
220
0.0
230
1.0
  2
SOLID
 70
     1
 71
     0
 91
        1
 92
        1
 93
        3
 72
     1
 10
8.60751003689236
 20
7.284518771701388
 11
8.60751003689236
 21
7.257853190104166
 72
     1
 10
8.60751003689236
 20
7.257853190104166
 11
8.527506510416666
 21
7.271185980902778
 72
     1
 10
8.527506510416666
 20
7.271185980902778
 11
8.60751003689236
 21
7.284518771701388
 97
        0
 75
     2
 76
     1
 98
        0
  0
ENDBLK
  5
E7
330
E4
100
AcDbEntity
  8
0
100
AcDbBlockEnd
  0
BLOCK
  5
F1
330
EF
100
AcDbEntity
  8
0
100
AcDbBlockBegin
  2
block 22
 70
     0
 71
     0
 10
0.0
 20
0.0
 30
0.0
  3
block 22
  1

  0
POLYLINE
  5
F3
330
EF
100
AcDbEntity
  8
DIMLAY
 62
     7
420
 16777215
370
    35
100
AcDb2dPolyline
 66
     1
 10
0.0
 20
0.0
 30
0.0
  0
VERTEX
  5
F4
330
F3
100
AcDbEntity
  8
DIMLAY
 62
     7
420
 16777215
370
    35
100
AcDbVertex
100
AcDb2dVertex
 10
9.497504340277777
 20
7.284518771701388
 30
0.0
  0
VERTEX
  5
F5
330
F3
100
AcDbEntity
  8
DIMLAY
 62
     7
420
 16777215
370
    35
100
AcDbVertex
100
AcDb2dVertex
 10
9.497504340277777
 20
7.257853190104166
 30
0.0
  0
VERTEX
  5
F6
330
F3
100
AcDbEntity
  8
DIMLAY
 62
     7
420
 16777215
370
    35
100
AcDbVertex
100
AcDb2dVertex
 10
9.577501085069445
 20
7.271185980902778
 30
0.0
  0
VERTEX
  5
F7
330
F3
100
AcDbEntity
  8
DIMLAY
 62
     7
420
 16777215
370
    35
100
AcDbVertex
100
AcDb2dVertex
 10
9.497504340277777
 20
7.284518771701388
 30
0.0
  0
SEQEND
  5
F8
330
F3
100
AcDbEntity
  8
DIMLAY
370
    35
  0
HATCH
  5
F9
330
EF
100
AcDbEntity
  8
DIMLAY
 62
     7
420
 16777215
100
AcDbHatch
 10
0.0
 20
0.0
 30
0.0
210
0.0
220
0.0
230
1.0
  2
SOLID
 70
     1
 71
     0
 91
        1
 92
        1
 93
        3
 72
     1
 10
9.497504340277777
 20
7.284518771701388
 11
9.497504340277777
 21
7.257853190104166
 72
     1
 10
9.497504340277777
 20
7.257853190104166
 11
9.577501085069445
 21
7.271185980902778
 72
     1
 10
9.577501085069445
 20
7.271185980902778
 11
9.497504340277777
 21
7.284518771701388
 97
        0
 75
     2
 76
     1
 98
        0
  0
ENDBLK
  5
F2
330
EF
100
AcDbEntity
  8
0
100
AcDbBlockEnd
  0
BLOCK
  5
FC
330
FA
100
AcDbEntity
  8
0
100
AcDbBlockBegin
  2
block 23
 70
     0
 71
     0
 10
0.0
 20
0.0
 30
0.0
  3
block 23
  1

  0
MTEXT
  5
FE
330
FA
100
AcDbEntity
  8
DIMLAY
 62
     7
420
 16777215
100
AcDbMText
 10
10.71904839409722
 20
7.304524739583333
 30
0.0
 40
0.0999999962912665
 41
0.0
 71
     7
 72
     1
  1
\fMyriad Pro|b0|i0|c0|p34;\W1;1.050"
 73
     1
 44
1.0
  0
MTEXT
  5
FF
330
FA
100
AcDbEntity
  8
DIMLAY
 62
     7
420
 16777215
100
AcDbMText
 10
10.62141927083333
 20
7.137858072916666
 30
0.0
 40
0.0999999962912665
 41
0.0
 71
     7
 72
     1
  1
\fMyriad Pro|b0|i0|c0|p34;\W1;26.67mm
 73
     1
 44
1.0
  0
ENDBLK
  5
FD
330
FA
100
AcDbEntity
  8
0
100
AcDbBlockEnd
  0
BLOCK
  5
102
330
100
100
AcDbEntity
  8
0
100
AcDbBlockBegin
  2
block 24
 70
     0
 71
     0
 10
0.0
 20
0.0
 30
0.0
  3
block 24
  1

  0
POLYLINE
  5
104
330
100
100
AcDbEntity
  8
DIMLAY
370
     0
100
AcDb2dPolyline
 66
     1
 10
0.0
 20
0.0
 30
0.0
  0
VERTEX
  5
105
330
104
100
AcDbEntity
  8
DIMLAY
370
     0
100
AcDbVertex
100
AcDb2dVertex
 10
8.527506510416666
 20
7.6636962890625
 30
0.0
  0
VERTEX
  5
106
330
104
100
AcDbEntity
  8
DIMLAY
370
     0
100
AcDbVertex
100
AcDb2dVertex
 10
8.527506510416666
 20
7.6636962890625
 30
0.0
  0
SEQEND
  5
107
330
104
100
AcDbEntity
  8
DIMLAY
370
     0
  0
ENDBLK
  5
103
330
100
100
AcDbEntity
  8
0
100
AcDbBlockEnd
  0
BLOCK
  5
10A
330
108
100
AcDbEntity
  8
0
100
AcDbBlockBegin
  2
block 25
 70
     0
 71
     0
 10
0.0
 20
0.0
 30
0.0
  3
block 25
  1

  0
POLYLINE
  5
10C
330
108
100
AcDbEntity
  8
DIMLAY
370
     0
100
AcDb2dPolyline
 66
     1
 10
0.0
 20
0.0
 30
0.0
  0
VERTEX
  5
10D
330
10C
100
AcDbEntity
  8
DIMLAY
370
     0
100
AcDbVertex
100
AcDb2dVertex
 10
9.577501085069445
 20
7.846693250868055
 30
0.0
  0
VERTEX
  5
10E
330
10C
100
AcDbEntity
  8
DIMLAY
370
     0
100
AcDbVertex
100
AcDb2dVertex
 10
9.577501085069445
 20
7.846693250868055
 30
0.0
  0
SEQEND
  5
10F
330
10C
100
AcDbEntity
  8
DIMLAY
370
     0
  0
ENDBLK
  5
10B
330
108
100
AcDbEntity
  8
0
100
AcDbBlockEnd
  0
BLOCK
  5
112
330
110
100
AcDbEntity
  8
0
100
AcDbBlockBegin
  2
block 26
 70
     0
 71
     0
 10
0.0
 20
0.0
 30
0.0
  3
block 26
  1

  0
POLYLINE
  5
114
330
110
100
AcDbEntity
  8
DIMLAY
370
     0
100
AcDb2dPolyline
 66
     1
 10
0.0
 20
0.0
 30
0.0
  0
VERTEX
  5
115
330
114
100
AcDbEntity
  8
DIMLAY
370
     0
100
AcDbVertex
100
AcDb2dVertex
 10
9.577501085069445
 20
7.271185980902778
 30
0.0
  0
VERTEX
  5
116
330
114
100
AcDbEntity
  8
DIMLAY
370
     0
100
AcDbVertex
100
AcDb2dVertex
 10
9.577501085069445
 20
7.271185980902778
 30
0.0
  0
SEQEND
  5
117
330
114
100
AcDbEntity
  8
DIMLAY
370
     0
  0
ENDBLK
  5
113
330
110
100
AcDbEntity
  8
0
100
AcDbBlockEnd
  0
BLOCK
  5
11A
330
118
100
AcDbEntity
  8
0
100
AcDbBlockBegin
  2
block 27
 70
     0
 71
     0
 10
0.0
 20
0.0
 30
0.0
  3
block 27
  1

  0
INSERT
  5
11D
330
118
100
AcDbEntity
  8
DIMLAY
100
AcDbBlockReference
  2
block 28
 10
0.0
 20
0.0
 30
0.0
  0
INSERT
  5
125
330
118
100
AcDbEntity
  8
DIMLAY
100
AcDbBlockReference
  2
block 29
 10
0.0
 20
0.0
 30
0.0
  0
INSERT
  5
12D
330
118
100
AcDbEntity
  8
DIMLAY
100
AcDbBlockReference
  2
block 30
 10
0.0
 20
0.0
 30
0.0
  0
INSERT
  5
135
330
118
100
AcDbEntity
  8
DIMLAY
100
AcDbBlockReference
  2
block 31
 10
0.0
 20
0.0
 30
0.0
  0
INSERT
  5
13D
330
118
100
AcDbEntity
  8
DIMLAY
100
AcDbBlockReference
  2
block 32
 10
0.0
 20
0.0
 30
0.0
  0
INSERT
  5
148
330
118
100
AcDbEntity
  8
DIMLAY
100
AcDbBlockReference
  2
block 33
 10
0.0
 20
0.0
 30
0.0
  0
INSERT
  5
153
330
118
100
AcDbEntity
  8
DIMLAY
100
AcDbBlockReference
  2
block 34
 10
0.0
 20
0.0
 30
0.0
  0
INSERT
  5
159
330
118
100
AcDbEntity
  8
DIMLAY
100
AcDbBlockReference
  2
block 35
 10
0.0
 20
0.0
 30
0.0
  0
INSERT
  5
161
330
118
100
AcDbEntity
  8
DIMLAY
100
AcDbBlockReference
  2
block 36
 10
0.0
 20
0.0
 30
0.0
  0
INSERT
  5
169
330
118
100
AcDbEntity
  8
DIMLAY
100
AcDbBlockReference
  2
block 37
 10
0.0
 20
0.0
 30
0.0
  0
ENDBLK
  5
11B
330
118
100
AcDbEntity
  8
0
100
AcDbBlockEnd
  0
BLOCK
  5
11E
330
11C
100
AcDbEntity
  8
0
100
AcDbBlockBegin
  2
block 28
 70
     0
 71
     0
 10
0.0
 20
0.0
 30
0.0
  3
block 28
  1

  0
POLYLINE
  5
120
330
11C
100
AcDbEntity
  8
DIMLAY
 62
     7
420
 16777215
370
    25
100
AcDb2dPolyline
 66
     1
 10
0.0
 20
0.0
 30
0.0
  0
VERTEX
  5
121
330
120
100
AcDbEntity
  8
DIMLAY
 62
     7
420
 16777215
370
    25
100
AcDbVertex
100
AcDb2dVertex
 10
9.760511610243055
 20
7.9761962890625
 30
0.0
  0
VERTEX
  5
122
330
120
100
AcDbEntity
  8
DIMLAY
 62
     7
420
 16777215
370
    25
100
AcDbVertex
100
AcDb2dVertex
 10
10.57001410590278
 20
7.9761962890625
 30
0.0
  0
SEQEND
  5
123
330
120
100
AcDbEntity
  8
DIMLAY
370
    25
  0
ENDBLK
  5
11F
330
11C
100
AcDbEntity
  8
0
100
AcDbBlockEnd
  0
BLOCK
  5
126
330
124
100
AcDbEntity
  8
0
100
AcDbBlockBegin
  2
block 29
 70
     0
 71
     0
 10
0.0
 20
0.0
 30
0.0
  3
block 29
  1

  0
POLYLINE
  5
128
330
124
100
AcDbEntity
  8
DIMLAY
 62
     7
420
 16777215
370
    25
100
AcDb2dPolyline
 66
     1
 10
0.0
 20
0.0
 30
0.0
  0
VERTEX
  5
129
330
128
100
AcDbEntity
  8
DIMLAY
 62
     7
420
 16777215
370
    25
100
AcDbVertex
100
AcDb2dVertex
 10
10.06551106770833
 20
10.22618950737847
 30
0.0
  0
VERTEX
  5
12A
330
128
100
AcDbEntity
  8
DIMLAY
 62
     7
420
 16777215
370
    25
100
AcDbVertex
100
AcDb2dVertex
 10
10.57001410590278
 20
10.22618950737847
 30
0.0
  0
SEQEND
  5
12B
330
128
100
AcDbEntity
  8
DIMLAY
370
    25
  0
ENDBLK
  5
127
330
124
100
AcDbEntity
  8
0
100
AcDbBlockEnd
  0
BLOCK
  5
12E
330
12C
100
AcDbEntity
  8
0
100
AcDbBlockBegin
  2
block 30
 70
     0
 71
     0
 10
0.0
 20
0.0
 30
0.0
  3
block 30
  1

  0
POLYLINE
  5
130
330
12C
100
AcDbEntity
  8
DIMLAY
 62
     7
420
 16777215
370
    25
100
AcDb2dPolyline
 66
     1
 10
0.0
 20
0.0
 30
0.0
  0
VERTEX
  5
131
330
130
100
AcDbEntity
  8
DIMLAY
 62
     7
420
 16777215
370
    25
100
AcDbVertex
100
AcDb2dVertex
 10
10.49000379774306
 20
8.056193033854166
 30
0.0
  0
VERTEX
  5
132
330
130
100
AcDbEntity
  8
DIMLAY
 62
     7
420
 16777215
370
    25
100
AcDbVertex
100
AcDb2dVertex
 10
10.49000379774306
 20
8.898328993055555
 30
0.0
  0
SEQEND
  5
133
330
130
100
AcDbEntity
  8
DIMLAY
370
    25
  0
ENDBLK
  5
12F
330
12C
100
AcDbEntity
  8
0
100
AcDbBlockEnd
  0
BLOCK
  5
136
330
134
100
AcDbEntity
  8
0
100
AcDbBlockBegin
  2
block 31
 70
     0
 71
     0
 10
0.0
 20
0.0
 30
0.0
  3
block 31
  1

  0
POLYLINE
  5
138
330
134
100
AcDbEntity
  8
DIMLAY
 62
     7
420
 16777215
370
    25
100
AcDb2dPolyline
 66
     1
 10
0.0
 20
0.0
 30
0.0
  0
VERTEX
  5
139
330
138
100
AcDbEntity
  8
DIMLAY
 62
     7
420
 16777215
370
    25
100
AcDbVertex
100
AcDb2dVertex
 10
10.49000379774306
 20
10.14619276258681
 30
0.0
  0
VERTEX
  5
13A
330
138
100
AcDbEntity
  8
DIMLAY
 62
     7
420
 16777215
370
    25
100
AcDbVertex
100
AcDb2dVertex
 10
10.49000379774306
 20
9.304050021701388
 30
0.0
  0
SEQEND
  5
13B
330
138
100
AcDbEntity
  8
DIMLAY
370
    25
  0
ENDBLK
  5
137
330
134
100
AcDbEntity
  8
0
100
AcDbBlockEnd
  0
BLOCK
  5
13E
330
13C
100
AcDbEntity
  8
0
100
AcDbBlockBegin
  2
block 32
 70
     0
 71
     0
 10
0.0
 20
0.0
 30
0.0
  3
block 32
  1

  0
POLYLINE
  5
140
330
13C
100
AcDbEntity
  8
DIMLAY
 62
     7
420
 16777215
370
    35
100
AcDb2dPolyline
 66
     1
 10
0.0
 20
0.0
 30
0.0
  0
VERTEX
  5
141
330
140
100
AcDbEntity
  8
DIMLAY
 62
     7
420
 16777215
370
    35
100
AcDbVertex
100
AcDb2dVertex
 10
10.47667100694444
 20
8.056193033854166
 30
0.0
  0
VERTEX
  5
142
330
140
100
AcDbEntity
  8
DIMLAY
 62
     7
420
 16777215
370
    35
100
AcDbVertex
100
AcDb2dVertex
 10
10.50333658854167
 20
8.056193033854166
 30
0.0
  0
VERTEX
  5
143
330
140
100
AcDbEntity
  8
DIMLAY
 62
     7
420
 16777215
370
    35
100
AcDbVertex
100
AcDb2dVertex
 10
10.49000379774306
 20
7.9761962890625
 30
0.0
  0
VERTEX
  5
144
330
140
100
AcDbEntity
  8
DIMLAY
 62
     7
420
 16777215
370
    35
100
AcDbVertex
100
AcDb2dVertex
 10
10.47667100694444
 20
8.056193033854166
 30
0.0
  0
SEQEND
  5
145
330
140
100
AcDbEntity
  8
DIMLAY
370
    35
  0
HATCH
  5
146
330
13C
100
AcDbEntity
  8
DIMLAY
 62
     7
420
 16777215
100
AcDbHatch
 10
0.0
 20
0.0
 30
0.0
210
0.0
220
0.0
230
1.0
  2
SOLID
 70
     1
 71
     0
 91
        1
 92
        1
 93
        3
 72
     1
 10
10.47667100694444
 20
8.056193033854166
 11
10.50333658854167
 21
8.056193033854166
 72
     1
 10
10.50333658854167
 20
8.056193033854166
 11
10.49000379774306
 21
7.9761962890625
 72
     1
 10
10.49000379774306
 20
7.9761962890625
 11
10.47667100694444
 21
8.056193033854166
 97
        0
 75
     2
 76
     1
 98
        0
  0
ENDBLK
  5
13F
330
13C
100
AcDbEntity
  8
0
100
AcDbBlockEnd
  0
BLOCK
  5
149
330
147
100
AcDbEntity
  8
0
100
AcDbBlockBegin
  2
block 33
 70
     0
 71
     0
 10
0.0
 20
0.0
 30
0.0
  3
block 33
  1

  0
POLYLINE
  5
14B
330
147
100
AcDbEntity
  8
DIMLAY
 62
     7
420
 16777215
370
    35
100
AcDb2dPolyline
 66
     1
 10
0.0
 20
0.0
 30
0.0
  0
VERTEX
  5
14C
330
14B
100
AcDbEntity
  8
DIMLAY
 62
     7
420
 16777215
370
    35
100
AcDbVertex
100
AcDb2dVertex
 10
10.47667100694444
 20
10.14619276258681
 30
0.0
  0
VERTEX
  5
14D
330
14B
100
AcDbEntity
  8
DIMLAY
 62
     7
420
 16777215
370
    35
100
AcDbVertex
100
AcDb2dVertex
 10
10.50333658854167
 20
10.14619276258681
 30
0.0
  0
VERTEX
  5
14E
330
14B
100
AcDbEntity
  8
DIMLAY
 62
     7
420
 16777215
370
    35
100
AcDbVertex
100
AcDb2dVertex
 10
10.49000379774306
 20
10.22618950737847
 30
0.0
  0
VERTEX
  5
14F
330
14B
100
AcDbEntity
  8
DIMLAY
 62
     7
420
 16777215
370
    35
100
AcDbVertex
100
AcDb2dVertex
 10
10.47667100694444
 20
10.14619276258681
 30
0.0
  0
SEQEND
  5
150
330
14B
100
AcDbEntity
  8
DIMLAY
370
    35
  0
HATCH
  5
151
330
147
100
AcDbEntity
  8
DIMLAY
 62
     7
420
 16777215
100
AcDbHatch
 10
0.0
 20
0.0
 30
0.0
210
0.0
220
0.0
230
1.0
  2
SOLID
 70
     1
 71
     0
 91
        1
 92
        1
 93
        3
 72
     1
 10
10.47667100694444
 20
10.14619276258681
 11
10.50333658854167
 21
10.14619276258681
 72
     1
 10
10.50333658854167
 20
10.14619276258681
 11
10.49000379774306
 21
10.22618950737847
 72
     1
 10
10.49000379774306
 20
10.22618950737847
 11
10.47667100694444
 21
10.14619276258681
 97
        0
 75
     2
 76
     1
 98
        0
  0
ENDBLK
  5
14A
330
147
100
AcDbEntity
  8
0
100
AcDbBlockEnd
  0
BLOCK
  5
154
330
152
100
AcDbEntity
  8
0
100
AcDbBlockBegin
  2
block 34
 70
     0
 71
     0
 10
0.0
 20
0.0
 30
0.0
  3
block 34
  1

  0
MTEXT
  5
156
330
152
100
AcDbEntity
  8
DIMLAY
 62
     7
420
 16777215
100
AcDbMText
 10
10.24001736111111
 20
9.134521484375
 30
0.0
 40
0.0999999962912665
 41
0.0
 71
     7
 72
     1
  1
\fMyriad Pro|b0|i0|c0|p34;\W1;2.250"
 73
     1
 44
1.0
  0
MTEXT
  5
157
330
152
100
AcDbEntity
  8
DIMLAY
 62
     7
420
 16777215
100
AcDbMText
 10
10.13525390625
 20
8.967854817708332
 30
0.0
 40
0.0999999962912665
 41
0.0
 71
     7
 72
     1
  1
\fMyriad Pro|b0|i0|c0|p34;\W1;57.15mm
 73
     1
 44
1.0
  0
ENDBLK
  5
155
330
152
100
AcDbEntity
  8
0
100
AcDbBlockEnd
  0
BLOCK
  5
15A
330
158
100
AcDbEntity
  8
0
100
AcDbBlockBegin
  2
block 35
 70
     0
 71
     0
 10
0.0
 20
0.0
 30
0.0
  3
block 35
  1

  0
POLYLINE
  5
15C
330
158
100
AcDbEntity
  8
DIMLAY
370
     0
100
AcDb2dPolyline
 66
     1
 10
0.0
 20
0.0
 30
0.0
  0
VERTEX
  5
15D
330
15C
100
AcDbEntity
  8
DIMLAY
370
     0
100
AcDbVertex
100
AcDb2dVertex
 10
9.697509765625
 20
7.9761962890625
 30
0.0
  0
VERTEX
  5
15E
330
15C
100
AcDbEntity
  8
DIMLAY
370
     0
100
AcDbVertex
100
AcDb2dVertex
 10
9.697509765625
 20
7.9761962890625
 30
0.0
  0
SEQEND
  5
15F
330
15C
100
AcDbEntity
  8
DIMLAY
370
     0
  0
ENDBLK
  5
15B
330
158
100
AcDbEntity
  8
0
100
AcDbBlockEnd
  0
BLOCK
  5
162
330
160
100
AcDbEntity
  8
0
100
AcDbBlockBegin
  2
block 36
 70
     0
 71
     0
 10
0.0
 20
0.0
 30
0.0
  3
block 36
  1

  0
POLYLINE
  5
164
330
160
100
AcDbEntity
  8
DIMLAY
370
     0
100
AcDb2dPolyline
 66
     1
 10
0.0
 20
0.0
 30
0.0
  0
VERTEX
  5
165
330
164
100
AcDbEntity
  8
DIMLAY
370
     0
100
AcDbVertex
100
AcDb2dVertex
 10
10.00250922309028
 20
10.22618950737847
 30
0.0
  0
VERTEX
  5
166
330
164
100
AcDbEntity
  8
DIMLAY
370
     0
100
AcDbVertex
100
AcDb2dVertex
 10
10.00250922309028
 20
10.22618950737847
 30
0.0
  0
SEQEND
  5
167
330
164
100
AcDbEntity
  8
DIMLAY
370
     0
  0
ENDBLK
  5
163
330
160
100
AcDbEntity
  8
0
100
AcDbBlockEnd
  0
BLOCK
  5
16A
330
168
100
AcDbEntity
  8
0
100
AcDbBlockBegin
  2
block 37
 70
     0
 71
     0
 10
0.0
 20
0.0
 30
0.0
  3
block 37
  1

  0
POLYLINE
  5
16C
330
168
100
AcDbEntity
  8
DIMLAY
370
     0
100
AcDb2dPolyline
 66
     1
 10
0.0
 20
0.0
 30
0.0
  0
VERTEX
  5
16D
330
16C
100
AcDbEntity
  8
DIMLAY
370
     0
100
AcDbVertex
100
AcDb2dVertex
 10
10.49000379774306
 20
10.22618950737847
 30
0.0
  0
VERTEX
  5
16E
330
16C
100
AcDbEntity
  8
DIMLAY
370
     0
100
AcDbVertex
100
AcDb2dVertex
 10
10.49000379774306
 20
10.22618950737847
 30
0.0
  0
SEQEND
  5
16F
330
16C
100
AcDbEntity
  8
DIMLAY
370
     0
  0
ENDBLK
  5
16B
330
168
100
AcDbEntity
  8
0
100
AcDbBlockEnd
  0
BLOCK
  5
172
330
170
100
AcDbEntity
  8
0
100
AcDbBlockBegin
  2
block 38
 70
     0
 71
     0
 10
0.0
 20
0.0
 30
0.0
  3
block 38
  1

  0
INSERT
  5
175
330
170
100
AcDbEntity
  8
DIMLAY
100
AcDbBlockReference
  2
block 39
 10
0.0
 20
0.0
 30
0.0
  0
INSERT
  5
17D
330
170
100
AcDbEntity
  8
DIMLAY
100
AcDbBlockReference
  2
block 40
 10
0.0
 20
0.0
 30
0.0
  0
INSERT
  5
185
330
170
100
AcDbEntity
  8
DIMLAY
100
AcDbBlockReference
  2
block 41
 10
0.0
 20
0.0
 30
0.0
  0
INSERT
  5
18D
330
170
100
AcDbEntity
  8
DIMLAY
100
AcDbBlockReference
  2
block 42
 10
0.0
 20
0.0
 30
0.0
  0
INSERT
  5
195
330
170
100
AcDbEntity
  8
DIMLAY
100
AcDbBlockReference
  2
block 43
 10
0.0
 20
0.0
 30
0.0
  0
INSERT
  5
1A0
330
170
100
AcDbEntity
  8
DIMLAY
100
AcDbBlockReference
  2
block 44
 10
0.0
 20
0.0
 30
0.0
  0
INSERT
  5
1AB
330
170
100
AcDbEntity
  8
DIMLAY
100
AcDbBlockReference
  2
block 45
 10
0.0
 20
0.0
 30
0.0
  0
INSERT
  5
1B0
330
170
100
AcDbEntity
  8
DIMLAY
100
AcDbBlockReference
  2
block 46
 10
0.0
 20
0.0
 30
0.0
  0
INSERT
  5
1B8
330
170
100
AcDbEntity
  8
DIMLAY
100
AcDbBlockReference
  2
block 47
 10
0.0
 20
0.0
 30
0.0
  0
INSERT
  5
1C0
330
170
100
AcDbEntity
  8
DIMLAY
100
AcDbBlockReference
  2
block 48
 10
0.0
 20
0.0
 30
0.0
  0
ENDBLK
  5
173
330
170
100
AcDbEntity
  8
0
100
AcDbBlockEnd
  0
BLOCK
  5
176
330
174
100
AcDbEntity
  8
0
100
AcDbBlockBegin
  2
block 39
 70
     0
 71
     0
 10
0.0
 20
0.0
 30
0.0
  3
block 39
  1

  0
POLYLINE
  5
178
330
174
100
AcDbEntity
  8
DIMLAY
 62
     7
420
 16777215
370
    25
100
AcDb2dPolyline
 66
     1
 10
0.0
 20
0.0
 30
0.0
  0
VERTEX
  5
179
330
178
100
AcDbEntity
  8
DIMLAY
 62
     7
420
 16777215
370
    25
100
AcDbVertex
100
AcDb2dVertex
 10
8.10250515407986
 20
7.838189019097221
 30
0.0
  0
VERTEX
  5
17A
330
178
100
AcDbEntity
  8
DIMLAY
 62
     7
420
 16777215
370
    25
100
AcDbVertex
100
AcDb2dVertex
 10
8.10250515407986
 20
6.771185980902778
 30
0.0
  0
SEQEND
  5
17B
330
178
100
AcDbEntity
  8
DIMLAY
370
    25
  0
ENDBLK
  5
177
330
174
100
AcDbEntity
  8
0
100
AcDbBlockEnd
  0
BLOCK
  5
17E
330
17C
100
AcDbEntity
  8
0
100
AcDbBlockBegin
  2
block 40
 70
     0
 71
     0
 10
0.0
 20
0.0
 30
0.0
  3
block 40
  1

  0
POLYLINE
  5
180
330
17C
100
AcDbEntity
  8
DIMLAY
 62
     7
420
 16777215
370
    25
100
AcDb2dPolyline
 66
     1
 10
0.0
 20
0.0
 30
0.0
  0
VERTEX
  5
181
330
180
100
AcDbEntity
  8
DIMLAY
 62
     7
420
 16777215
370
    25
100
AcDbVertex
100
AcDb2dVertex
 10
10.00250922309028
 20
7.838189019097221
 30
0.0
  0
VERTEX
  5
182
330
180
100
AcDbEntity
  8
DIMLAY
 62
     7
420
 16777215
370
    25
100
AcDbVertex
100
AcDb2dVertex
 10
10.00250922309028
 20
6.771185980902778
 30
0.0
  0
SEQEND
  5
183
330
180
100
AcDbEntity
  8
DIMLAY
370
    25
  0
ENDBLK
  5
17F
330
17C
100
AcDbEntity
  8
0
100
AcDbBlockEnd
  0
BLOCK
  5
186
330
184
100
AcDbEntity
  8
0
100
AcDbBlockBegin
  2
block 41
 70
     0
 71
     0
 10
0.0
 20
0.0
 30
0.0
  3
block 41
  1

  0
POLYLINE
  5
188
330
184
100
AcDbEntity
  8
DIMLAY
 62
     7
420
 16777215
370
    25
100
AcDb2dPolyline
 66
     1
 10
0.0
 20
0.0
 30
0.0
  0
VERTEX
  5
189
330
188
100
AcDbEntity
  8
DIMLAY
 62
     7
420
 16777215
370
    25
100
AcDbVertex
100
AcDb2dVertex
 10
8.182508680555555
 20
6.8511962890625
 30
0.0
  0
VERTEX
  5
18A
330
188
100
AcDbEntity
  8
DIMLAY
 62
     7
420
 16777215
370
    25
100
AcDbVertex
100
AcDb2dVertex
 10
8.44012451171875
 20
6.8511962890625
 30
0.0
  0
SEQEND
  5
18B
330
188
100
AcDbEntity
  8
DIMLAY
370
    25
  0
ENDBLK
  5
187
330
184
100
AcDbEntity
  8
0
100
AcDbBlockEnd
  0
BLOCK
  5
18E
330
18C
100
AcDbEntity
  8
0
100
AcDbBlockBegin
  2
block 42
 70
     0
 71
     0
 10
0.0
 20
0.0
 30
0.0
  3
block 42
  1

  0
POLYLINE
  5
190
330
18C
100
AcDbEntity
  8
DIMLAY
 62
     7
420
 16777215
370
    25
100
AcDb2dPolyline
 66
     1
 10
0.0
 20
0.0
 30
0.0
  0
VERTEX
  5
191
330
190
100
AcDbEntity
  8
DIMLAY
 62
     7
420
 16777215
370
    25
100
AcDbVertex
100
AcDb2dVertex
 10
9.92251247829861
 20
6.8511962890625
 30
0.0
  0
VERTEX
  5
192
330
190
100
AcDbEntity
  8
DIMLAY
 62
     7
420
 16777215
370
    25
100
AcDbVertex
100
AcDb2dVertex
 10
9.664889865451388
 20
6.8511962890625
 30
0.0
  0
SEQEND
  5
193
330
190
100
AcDbEntity
  8
DIMLAY
370
    25
  0
ENDBLK
  5
18F
330
18C
100
AcDbEntity
  8
0
100
AcDbBlockEnd
  0
BLOCK
  5
196
330
194
100
AcDbEntity
  8
0
100
AcDbBlockBegin
  2
block 43
 70
     0
 71
     0
 10
0.0
 20
0.0
 30
0.0
  3
block 43
  1

  0
POLYLINE
  5
198
330
194
100
AcDbEntity
  8
DIMLAY
 62
     7
420
 16777215
370
    35
100
AcDb2dPolyline
 66
     1
 10
0.0
 20
0.0
 30
0.0
  0
VERTEX
  5
199
330
198
100
AcDbEntity
  8
DIMLAY
 62
     7
420
 16777215
370
    35
100
AcDbVertex
100
AcDb2dVertex
 10
8.182508680555555
 20
6.864529079861111
 30
0.0
  0
VERTEX
  5
19A
330
198
100
AcDbEntity
  8
DIMLAY
 62
     7
420
 16777215
370
    35
100
AcDbVertex
100
AcDb2dVertex
 10
8.182508680555555
 20
6.837863498263888
 30
0.0
  0
VERTEX
  5
19B
330
198
100
AcDbEntity
  8
DIMLAY
 62
     7
420
 16777215
370
    35
100
AcDbVertex
100
AcDb2dVertex
 10
8.10250515407986
 20
6.8511962890625
 30
0.0
  0
VERTEX
  5
19C
330
198
100
AcDbEntity
  8
DIMLAY
 62
     7
420
 16777215
370
    35
100
AcDbVertex
100
AcDb2dVertex
 10
8.182508680555555
 20
6.864529079861111
 30
0.0
  0
SEQEND
  5
19D
330
198
100
AcDbEntity
  8
DIMLAY
370
    35
  0
HATCH
  5
19E
330
194
100
AcDbEntity
  8
DIMLAY
 62
     7
420
 16777215
100
AcDbHatch
 10
0.0
 20
0.0
 30
0.0
210
0.0
220
0.0
230
1.0
  2
SOLID
 70
     1
 71
     0
 91
        1
 92
        1
 93
        3
 72
     1
 10
8.182508680555555
 20
6.864529079861111
 11
8.182508680555555
 21
6.837863498263888
 72
     1
 10
8.182508680555555
 20
6.837863498263888
 11
8.10250515407986
 21
6.8511962890625
 72
     1
 10
8.10250515407986
 20
6.8511962890625
 11
8.182508680555555
 21
6.864529079861111
 97
        0
 75
     2
 76
     1
 98
        0
  0
ENDBLK
  5
197
330
194
100
AcDbEntity
  8
0
100
AcDbBlockEnd
  0
BLOCK
  5
1A1
330
19F
100
AcDbEntity
  8
0
100
AcDbBlockBegin
  2
block 44
 70
     0
 71
     0
 10
0.0
 20
0.0
 30
0.0
  3
block 44
  1

  0
POLYLINE
  5
1A3
330
19F
100
AcDbEntity
  8
DIMLAY
 62
     7
420
 16777215
370
    35
100
AcDb2dPolyline
 66
     1
 10
0.0
 20
0.0
 30
0.0
  0
VERTEX
  5
1A4
330
1A3
100
AcDbEntity
  8
DIMLAY
 62
     7
420
 16777215
370
    35
100
AcDbVertex
100
AcDb2dVertex
 10
9.92251247829861
 20
6.864529079861111
 30
0.0
  0
VERTEX
  5
1A5
330
1A3
100
AcDbEntity
  8
DIMLAY
 62
     7
420
 16777215
370
    35
100
AcDbVertex
100
AcDb2dVertex
 10
9.92251247829861
 20
6.837863498263888
 30
0.0
  0
VERTEX
  5
1A6
330
1A3
100
AcDbEntity
  8
DIMLAY
 62
     7
420
 16777215
370
    35
100
AcDbVertex
100
AcDb2dVertex
 10
10.00250922309028
 20
6.8511962890625
 30
0.0
  0
VERTEX
  5
1A7
330
1A3
100
AcDbEntity
  8
DIMLAY
 62
     7
420
 16777215
370
    35
100
AcDbVertex
100
AcDb2dVertex
 10
9.92251247829861
 20
6.864529079861111
 30
0.0
  0
SEQEND
  5
1A8
330
1A3
100
AcDbEntity
  8
DIMLAY
370
    35
  0
HATCH
  5
1A9
330
19F
100
AcDbEntity
  8
DIMLAY
 62
     7
420
 16777215
100
AcDbHatch
 10
0.0
 20
0.0
 30
0.0
210
0.0
220
0.0
230
1.0
  2
SOLID
 70
     1
 71
     0
 91
        1
 92
        1
 93
        3
 72
     1
 10
9.92251247829861
 20
6.864529079861111
 11
9.92251247829861
 21
6.837863498263888
 72
     1
 10
9.92251247829861
 20
6.837863498263888
 11
10.00250922309028
 21
6.8511962890625
 72
     1
 10
10.00250922309028
 20
6.8511962890625
 11
9.92251247829861
 21
6.864529079861111
 97
        0
 75
     2
 76
     1
 98
        0
  0
ENDBLK
  5
1A2
330
19F
100
AcDbEntity
  8
0
100
AcDbBlockEnd
  0
BLOCK
  5
1AC
330
1AA
100
AcDbEntity
  8
0
100
AcDbBlockBegin
  2
block 45
 70
     0
 71
     0
 10
0.0
 20
0.0
 30
0.0
  3
block 45
  1

  0
MTEXT
  5
1AE
330
1AA
100
AcDbEntity
  8
DIMLAY
 62
     7
420
 16777215
100
AcDbMText
 10
8.464409722222221
 20
6.817857530381944
 30
0.0
 40
0.0999999962912665
 41
0.0
 71
     7
 72
     1
  1
\fMyriad Pro|b0|i0|c0|p34;\W1;1.900" [48.26]
 73
     1
 44
1.0
  0
ENDBLK
  5
1AD
330
1AA
100
AcDbEntity
  8
0
100
AcDbBlockEnd
  0
BLOCK
  5
1B1
330
1AF
100
AcDbEntity
  8
0
100
AcDbBlockBegin
  2
block 46
 70
     0
 71
     0
 10
0.0
 20
0.0
 30
0.0
  3
block 46
  1

  0
POLYLINE
  5
1B3
330
1AF
100
AcDbEntity
  8
DIMLAY
370
     0
100
AcDb2dPolyline
 66
     1
 10
0.0
 20
0.0
 30
0.0
  0
VERTEX
  5
1B4
330
1B3
100
AcDbEntity
  8
DIMLAY
370
     0
100
AcDbVertex
100
AcDb2dVertex
 10
8.10250515407986
 20
7.901190863715278
 30
0.0
  0
VERTEX
  5
1B5
330
1B3
100
AcDbEntity
  8
DIMLAY
370
     0
100
AcDbVertex
100
AcDb2dVertex
 10
8.10250515407986
 20
7.901190863715278
 30
0.0
  0
SEQEND
  5
1B6
330
1B3
100
AcDbEntity
  8
DIMLAY
370
     0
  0
ENDBLK
  5
1B2
330
1AF
100
AcDbEntity
  8
0
100
AcDbBlockEnd
  0
BLOCK
  5
1B9
330
1B7
100
AcDbEntity
  8
0
100
AcDbBlockBegin
  2
block 47
 70
     0
 71
     0
 10
0.0
 20
0.0
 30
0.0
  3
block 47
  1

  0
POLYLINE
  5
1BB
330
1B7
100
AcDbEntity
  8
DIMLAY
370
     0
100
AcDb2dPolyline
 66
     1
 10
0.0
 20
0.0
 30
0.0
  0
VERTEX
  5
1BC
330
1BB
100
AcDbEntity
  8
DIMLAY
370
     0
100
AcDbVertex
100
AcDb2dVertex
 10
10.00250922309028
 20
7.901190863715278
 30
0.0
  0
VERTEX
  5
1BD
330
1BB
100
AcDbEntity
  8
DIMLAY
370
     0
100
AcDbVertex
100
AcDb2dVertex
 10
10.00250922309028
 20
7.901190863715278
 30
0.0
  0
SEQEND
  5
1BE
330
1BB
100
AcDbEntity
  8
DIMLAY
370
     0
  0
ENDBLK
  5
1BA
330
1B7
100
AcDbEntity
  8
0
100
AcDbBlockEnd
  0
BLOCK
  5
1C1
330
1BF
100
AcDbEntity
  8
0
100
AcDbBlockBegin
  2
block 48
 70
     0
 71
     0
 10
0.0
 20
0.0
 30
0.0
  3
block 48
  1

  0
POLYLINE
  5
1C3
330
1BF
100
AcDbEntity
  8
DIMLAY
370
     0
100
AcDb2dPolyline
 66
     1
 10
0.0
 20
0.0
 30
0.0
  0
VERTEX
  5
1C4
330
1C3
100
AcDbEntity
  8
DIMLAY
370
     0
100
AcDbVertex
100
AcDb2dVertex
 10
10.00250922309028
 20
6.8511962890625
 30
0.0
  0
VERTEX
  5
1C5
330
1C3
100
AcDbEntity
  8
DIMLAY
370
     0
100
AcDbVertex
100
AcDb2dVertex
 10
10.00250922309028
 20
6.8511962890625
 30
0.0
  0
SEQEND
  5
1C6
330
1C3
100
AcDbEntity
  8
DIMLAY
370
     0
  0
ENDBLK
  5
1C2
330
1BF
100
AcDbEntity
  8
0
100
AcDbBlockEnd
  0
BLOCK
  5
1C9
330
1C7
100
AcDbEntity
  8
0
100
AcDbBlockBegin
  2
block 49
 70
     0
 71
     0
 10
0.0
 20
0.0
 30
0.0
  3
block 49
  1

  0
POLYLINE
  5
1CB
330
1C7
100
AcDbEntity
  8
DIMLAY
 62
     7
420
 16777215
370
    25
100
AcDb2dPolyline
 66
     1
 10
0.0
 20
0.0
 30
0.0
  0
VERTEX
  5
1CC
330
1CB
100
AcDbEntity
  8
DIMLAY
 62
     7
420
 16777215
370
    25
100
AcDbVertex
100
AcDb2dVertex
 10
8.527506510416666
 20
7.856187608506944
 30
0.0
  0
VERTEX
  5
1CD
330
1CB
100
AcDbEntity
  8
DIMLAY
 62
     7
420
 16777215
370
    25
100
AcDbVertex
100
AcDb2dVertex
 10
8.527506510416666
 20
8.09619140625
 30
0.0
  0
SEQEND
  5
1CE
330
1CB
100
AcDbEntity
  8
DIMLAY
370
    25
  0
ENDBLK
  5
1CA
330
1C7
100
AcDbEntity
  8
0
100
AcDbBlockEnd
  0
BLOCK
  5
1D1
330
1CF
100
AcDbEntity
  8
0
100
AcDbBlockBegin
  2
block 50
 70
     0
 71
     0
 10
0.0
 20
0.0
 30
0.0
  3
block 50
  1

  0
MTEXT
  5
1D3
330
1CF
100
AcDbEntity
  8
DIMLAY
 62
     7
420
 16777215
100
AcDbMText
 10
8.887715657552082
 20
7.916354709201388
 30
0.0
 40
0.0999999962912665
 41
0.0
 71
     7
 72
     1
  1
\fMyriad Pro|b0|i0|c0|p34;\W1;U
 73
     1
 44
1.0
  0
ENDBLK
  5
1D2
330
1CF
100
AcDbEntity
  8
0
100
AcDbBlockEnd
  0
BLOCK
  5
1D6
330
1D4
100
AcDbEntity
  8
0
100
AcDbBlockBegin
  2
block 51
 70
     0
 71
     0
 10
0.0
 20
0.0
 30
0.0
  3
block 51
  1

  0
MTEXT
  5
1D8
330
1D4
100
AcDbEntity
  8
DIMLAY
 62
     7
420
 16777215
100
AcDbMText
 10
8.887715657552082
 20
7.744927300347221
 30
0.0
 40
0.0999999962912665
 41
0.0
 71
     7
 72
     1
  1
\fMyriad Pro|b0|i0|c0|p34;\W1;X
 73
     1
 44
1.0
  0
ENDBLK
  5
1D7
330
1D4
100
AcDbEntity
  8
0
100
AcDbBlockEnd
  0
BLOCK
  5
1DB
330
1D9
100
AcDbEntity
  8
0
100
AcDbBlockBegin
  2
block 52
 70
     0
 71
     0
 10
0.0
 20
0.0
 30
0.0
  3
block 52
  1

  0
POLYLINE
  5
1DD
330
1D9
100
AcDbEntity
  8
DIMLAY
 62
     7
420
 16777215
370
    25
100
AcDb2dPolyline
 66
     1
 10
0.0
 20
0.0
 30
0.0
  0
VERTEX
  5
1DE
330
1DD
100
AcDbEntity
  8
DIMLAY
 62
     7
420
 16777215
370
    25
100
AcDbVertex
100
AcDb2dVertex
 10
8.407511393229166
 20
7.9761962890625
 30
0.0
  0
VERTEX
  5
1DF
330
1DD
100
AcDbEntity
  8
DIMLAY
 62
     7
420
 16777215
370
    25
100
AcDbVertex
100
AcDb2dVertex
 10
8.647508409288195
 20
7.9761962890625
 30
0.0
  0
SEQEND
  5
1E0
330
1DD
100
AcDbEntity
  8
DIMLAY
370
    25
  0
ENDBLK
  5
1DC
330
1D9
100
AcDbEntity
  8
0
100
AcDbBlockEnd
  0
BLOCK
  5
1E3
330
1E1
100
AcDbEntity
  8
0
100
AcDbBlockBegin
  2
block 53
 70
     0
 71
     0
 10
0.0
 20
0.0
 30
0.0
  3
block 53
  1

  0
MTEXT
  5
1E5
330
1E1
100
AcDbEntity
  8
DIMLAY
 62
     7
420
 16777215
100
AcDbMText
 10
8.882954915364582
 20
8.087782118055555
 30
0.0
 40
0.0999999962912665
 41
0.0
 71
     7
 72
     1
  1
\fMyriad Pro|b0|i0|c0|p34;\W1;A
 73
     1
 44
1.0
  0
ENDBLK
  5
1E4
330
1E1
100
AcDbEntity
  8
0
100
AcDbBlockEnd
  0
BLOCK
  5
1E8
330
1E6
100
AcDbEntity
  8
0
100
AcDbBlockBegin
  2
block 54
 70
     0
 71
     0
 10
0.0
 20
0.0
 30
0.0
  3
block 54
  1

  0
POLYLINE
  5
1EA
330
1E6
100
AcDbEntity
  8
DIMLAY
 62
     7
420
 16777215
370
    25
100
AcDb2dPolyline
 66
     1
 10
0.0
 20
0.0
 30
0.0
  0
VERTEX
  5
1EB
330
1EA
100
AcDbEntity
  8
DIMLAY
 62
     7
420
 16777215
370
    25
100
AcDbVertex
100
AcDb2dVertex
 10
9.577501085069445
 20
7.856187608506944
 30
0.0
  0
VERTEX
  5
1EC
330
1EA
100
AcDbEntity
  8
DIMLAY
 62
     7
420
 16777215
370
    25
100
AcDbVertex
100
AcDb2dVertex
 10
9.577501085069445
 20
8.09619140625
 30
0.0
  0
SEQEND
  5
1ED
330
1EA
100
AcDbEntity
  8
DIMLAY
370
    25
  0
ENDBLK
  5
1E9
330
1E6
100
AcDbEntity
  8
0
100
AcDbBlockEnd
  0
BLOCK
  5
1F0
330
1EE
100
AcDbEntity
  8
0
100
AcDbBlockBegin
  2
block 55
 70
     0
 71
     0
 10
0.0
 20
0.0
 30
0.0
  3
block 55
  1

  0
POLYLINE
  5
1F2
330
1EE
100
AcDbEntity
  8
DIMLAY
 62
     7
420
 16777215
370
    25
100
AcDb2dPolyline
 66
     1
 10
0.0
 20
0.0
 30
0.0
  0
VERTEX
  5
1F3
330
1F2
100
AcDbEntity
  8
DIMLAY
 62
     7
420
 16777215
370
    25
100
AcDbVertex
100
AcDb2dVertex
 10
9.457505967881945
 20
7.9761962890625
 30
0.0
  0
VERTEX
  5
1F4
330
1F2
100
AcDbEntity
  8
DIMLAY
 62
     7
420
 16777215
370
    25
100
AcDbVertex
100
AcDb2dVertex
 10
9.697509765625
 20
7.9761962890625
 30
0.0
  0
SEQEND
  5
1F5
330
1F2
100
AcDbEntity
  8
DIMLAY
370
    25
  0
ENDBLK
  5
1F1
330
1EE
100
AcDbEntity
  8
0
100
AcDbBlockEnd
  0
BLOCK
  5
1F8
330
1F6
100
AcDbEntity
  8
0
100
AcDbBlockBegin
  2
block 56
 70
     0
 71
     0
 10
0.0
 20
0.0
 30
0.0
  3
block 56
  1

  0
POLYLINE
  5
1FA
330
1F6
100
AcDbEntity
  8
DIMLAY
 62
     7
420
 16777215
370
    25
100
AcDb2dPolyline
 66
     1
 10
0.0
 20
0.0
 30
0.0
  0
VERTEX
  5
1FB
330
1FA
100
AcDbEntity
  8
DIMLAY
 62
     7
420
 16777215
370
    25
100
AcDbVertex
100
AcDb2dVertex
 10
8.527506510416666
 20
10.10618760850694
 30
0.0
  0
VERTEX
  5
1FC
330
1FA
100
AcDbEntity
  8
DIMLAY
 62
     7
420
 16777215
370
    25
100
AcDbVertex
100
AcDb2dVertex
 10
8.527506510416666
 20
10.34619140625
 30
0.0
  0
SEQEND
  5
1FD
330
1FA
100
AcDbEntity
  8
DIMLAY
370
    25
  0
ENDBLK
  5
1F9
330
1F6
100
AcDbEntity
  8
0
100
AcDbBlockEnd
  0
BLOCK
  5
200
330
1FE
100
AcDbEntity
  8
0
100
AcDbBlockBegin
  2
block 57
 70
     0
 71
     0
 10
0.0
 20
0.0
 30
0.0
  3
block 57
  1

  0
POLYLINE
  5
202
330
1FE
100
AcDbEntity
  8
DIMLAY
 62
     7
420
 16777215
370
    25
100
AcDb2dPolyline
 66
     1
 10
0.0
 20
0.0
 30
0.0
  0
VERTEX
  5
203
330
202
100
AcDbEntity
  8
DIMLAY
 62
     7
420
 16777215
370
    25
100
AcDbVertex
100
AcDb2dVertex
 10
8.407511393229166
 20
10.22618950737847
 30
0.0
  0
VERTEX
  5
204
330
202
100
AcDbEntity
  8
DIMLAY
 62
     7
420
 16777215
370
    25
100
AcDbVertex
100
AcDb2dVertex
 10
8.647508409288195
 20
10.22618950737847
 30
0.0
  0
SEQEND
  5
205
330
202
100
AcDbEntity
  8
DIMLAY
370
    25
  0
ENDBLK
  5
201
330
1FE
100
AcDbEntity
  8
0
100
AcDbBlockEnd
  0
BLOCK
  5
208
330
206
100
AcDbEntity
  8
0
100
AcDbBlockBegin
  2
block 58
 70
     0
 71
     0
 10
0.0
 20
0.0
 30
0.0
  3
block 58
  1

  0
POLYLINE
  5
20A
330
206
100
AcDbEntity
  8
DIMLAY
 62
     7
420
 16777215
370
    25
100
AcDb2dPolyline
 66
     1
 10
0.0
 20
0.0
 30
0.0
  0
VERTEX
  5
20B
330
20A
100
AcDbEntity
  8
DIMLAY
 62
     7
420
 16777215
370
    25
100
AcDbVertex
100
AcDb2dVertex
 10
9.577501085069445
 20
10.10618760850694
 30
0.0
  0
VERTEX
  5
20C
330
20A
100
AcDbEntity
  8
DIMLAY
 62
     7
420
 16777215
370
    25
100
AcDbVertex
100
AcDb2dVertex
 10
9.577501085069445
 20
10.34619140625
 30
0.0
  0
SEQEND
  5
20D
330
20A
100
AcDbEntity
  8
DIMLAY
370
    25
  0
ENDBLK
  5
209
330
206
100
AcDbEntity
  8
0
100
AcDbBlockEnd
  0
BLOCK
  5
210
330
20E
100
AcDbEntity
  8
0
100
AcDbBlockBegin
  2
block 59
 70
     0
 71
     0
 10
0.0
 20
0.0
 30
0.0
  3
block 59
  1

  0
POLYLINE
  5
212
330
20E
100
AcDbEntity
  8
DIMLAY
 62
     7
420
 16777215
370
    25
100
AcDb2dPolyline
 66
     1
 10
0.0
 20
0.0
 30
0.0
  0
VERTEX
  5
213
330
212
100
AcDbEntity
  8
DIMLAY
 62
     7
420
 16777215
370
    25
100
AcDbVertex
100
AcDb2dVertex
 10
9.457505967881945
 20
10.22618950737847
 30
0.0
  0
VERTEX
  5
214
330
212
100
AcDbEntity
  8
DIMLAY
 62
     7
420
 16777215
370
    25
100
AcDbVertex
100
AcDb2dVertex
 10
9.697509765625
 20
10.22618950737847
 30
0.0
  0
SEQEND
  5
215
330
212
100
AcDbEntity
  8
DIMLAY
370
    25
  0
ENDBLK
  5
211
330
20E
100
AcDbEntity
  8
0
100
AcDbBlockEnd
  0
BLOCK
  5
218
330
216
100
AcDbEntity
  8
0
100
AcDbBlockBegin
  2
block 60
 70
     0
 71
     0
 10
0.0
 20
0.0
 30
0.0
  3
block 60
  1

  0
MTEXT
  5
21A
330
216
100
AcDbEntity
  8
DIMLAY
 62
     7
420
 16777215
100
AcDbMText
 10
9.150634765625
 20
10.01459418402778
 30
0.0
 40
0.0999999962912665
 41
0.0
 71
     7
 72
     1
  1
\fMyriad Pro|b0|i0|c0|p34;\W1;T
 73
     1
 44
1.0
  0
ENDBLK
  5
219
330
216
100
AcDbEntity
  8
0
100
AcDbBlockEnd
  0
BLOCK
  5
21D
330
21B
100
AcDbEntity
  8
0
100
AcDbBlockBegin
  2
block 61
 70
     0
 71
     0
 10
0.0
 20
0.0
 30
0.0
  3
block 61
  1

  0
MTEXT
  5
21F
330
21B
100
AcDbEntity
  8
DIMLAY
 62
     7
420
 16777215
100
AcDbMText
 10
9.1458740234375
 20
10.18603515625
 30
0.0
 40
0.0999999962912665
 41
0.0
 71
     7
 72
     1
  1
\fMyriad Pro|b0|i0|c0|p34;\W1;A
 73
     1
 44
1.0
  0
ENDBLK
  5
21E
330
21B
100
AcDbEntity
  8
0
100
AcDbBlockEnd
  0
BLOCK
  5
222
330
220
100
AcDbEntity
  8
0
100
AcDbBlockBegin
  2
block 62
 70
     0
 71
     0
 10
0.0
 20
0.0
 30
0.0
  3
block 62
  1

  0
MTEXT
  5
224
330
220
100
AcDbEntity
  8
DIMLAY
 62
     7
420
 16777215
100
AcDbMText
 10
9.150634765625
 20
10.35746256510417
 30
0.0
 40
0.0999999962912665
 41
0.0
 71
     7
 72
     1
  1
\fMyriad Pro|b0|i0|c0|p34;\W1;B
 73
     1
 44
1.0
  0
ENDBLK
  5
223
330
220
100
AcDbEntity
  8
0
100
AcDbBlockEnd
  0
BLOCK
  5
227
330
225
100
AcDbEntity
  8
0
100
AcDbBlockBegin
  2
block 63
 70
     0
 71
     0
 10
0.0
 20
0.0
 30
0.0
  3
block 63
  1

  0
MTEXT
  5
229
330
225
100
AcDbEntity
  8
DIMLAY
 62
     7
420
 16777215
100
AcDbMText
 10
10.14643012152778
 20
11.05833604600694
 30
0.0
 40
0.0999999962912665
 41
0.0
 71
     7
 72
     1
  1
\fMyriad Pro|b0|i0|c0|p34;\W1;1/4" STUD
 73
     1
 44
1.0
  0
ENDBLK
  5
228
330
225
100
AcDbEntity
  8
0
100
AcDbBlockEnd
  0
BLOCK
  5
22D
330
22B
100
AcDbEntity
  8
0
100
AcDbBlockBegin
  2
block 64
 70
     0
 71
     0
 10
0.0
 20
0.0
 30
0.0
  3
block 64
  1

  0
SPLINE
  5
22F
330
22B
100
AcDbEntity
  8
PART
 62
     7
420
 16777215
370
    25
100
AcDbSpline
210
0.0
220
0.0
230
1.0
 70
    11
 71
     3
 72
    35
 73
    31
 74
     0
 42
0.0000000001
 43
0.0000000001
 40
0.0
 40
0.0
 40
0.0
 40
0.0
 40
1.0
 40
1.0
 40
1.0
 40
2.0
 40
2.0
 40
2.0
 40
3.0
 40
3.0
 40
3.0
 40
4.0
 40
4.0
 40
4.0
 40
5.0
 40
5.0
 40
5.0
 40
6.0
 40
6.0
 40
6.0
 40
7.0
 40
7.0
 40
7.0
 40
8.0
 40
8.0
 40
8.0
 40
9.0
 40
9.0
 40
9.0
 40
10.0
 40
10.0
 40
10.0
 40
10.0
 10
8.19662136501736
 20
9.011189778645832
 30
0.0
 10
8.228773328993055
 20
8.955498589409721
 30
0.0
 10
8.288201226128471
 20
8.921196831597221
 30
0.0
 10
8.35250515407986
 20
8.921196831597221
 30
0.0
 10
8.35250515407986
 20
8.921196831597221
 30
0.0
 10
9.052503797743055
 20
8.921196831597221
 30
0.0
 10
9.052503797743055
 20
8.921196831597221
 30
0.0
 10
9.052503797743055
 20
8.921196831597221
 30
0.0
 10
9.052503797743055
 20
8.8511962890625
 30
0.0
 10
9.052503797743055
 20
8.8511962890625
 30
0.0
 10
9.052503797743055
 20
8.8511962890625
 30
0.0
 10
9.752509223090277
 20
8.8511962890625
 30
0.0
 10
9.752509223090277
 20
8.8511962890625
 30
0.0
 10
9.890584309895832
 20
8.8511962890625
 30
0.0
 10
10.00250922309028
 20
8.963121202256945
 30
0.0
 10
10.00250922309028
 20
9.101189507378471
 30
0.0
 10
10.00250922309028
 20
9.239264594184027
 30
0.0
 10
9.890584309895832
 20
9.351189507378471
 30
0.0
 10
9.752509223090277
 20
9.351189507378471
 30
0.0
 10
9.752509223090277
 20
9.351189507378471
 30
0.0
 10
8.35250515407986
 20
9.351189507378471
 30
0.0
 10
8.35250515407986
 20
9.351189507378471
 30
0.0
 10
8.214436848958332
 20
9.351189507378471
 30
0.0
 10
8.10250515407986
 20
9.239264594184027
 30
0.0
 10
8.10250515407986
 20
9.101189507378471
 30
0.0
 10
8.10250515407986
 20
9.057305230034721
 30
0.0
 10
8.114061143663195
 20
9.014194064670138
 30
0.0
 10
8.135999891493055
 20
8.9761962890625
 30
0.0
 10
8.135999891493055
 20
8.9761962890625
 30
0.0
 10
8.19662136501736
 20
9.011189778645832
 30
0.0
 10
8.19662136501736
 20
9.011189778645832
 30
0.0
  0
ENDBLK
  5
22E
330
22B
100
AcDbEntity
  8
0
100
AcDbBlockEnd
  0
BLOCK
  5
232
330
230
100
AcDbEntity
  8
0
100
AcDbBlockBegin
  2
block 65
 70
     0
 71
     0
 10
0.0
 20
0.0
 30
0.0
  3
block 65
  1

  0
SPLINE
  5
234
330
230
100
AcDbEntity
  8
PART
 62
     7
420
 16777215
370
    25
100
AcDbSpline
210
0.0
220
0.0
230
1.0
 70
    11
 71
     3
 72
    29
 73
    25
 74
     0
 42
0.0000000001
 43
0.0000000001
 40
0.0
 40
0.0
 40
0.0
 40
0.0
 40
1.0
 40
1.0
 40
1.0
 40
2.0
 40
2.0
 40
2.0
 40
3.0
 40
3.0
 40
3.0
 40
4.0
 40
4.0
 40
4.0
 40
5.0
 40
5.0
 40
5.0
 40
6.0
 40
6.0
 40
6.0
 40
7.0
 40
7.0
 40
7.0
 40
8.0
 40
8.0
 40
8.0
 40
8.0
 10
9.53750271267361
 20
9.021192762586805
 30
0.0
 10
9.53750271267361
 20
9.021192762586805
 30
0.0
 10
9.66750759548611
 20
9.021192762586805
 30
0.0
 10
9.66750759548611
 20
9.021192762586805
 30
0.0
 10
9.71169704861111
 20
9.018513997395832
 30
0.0
 10
9.749674479166666
 20
9.05215115017361
 30
0.0
 10
9.752360026041666
 20
9.09634060329861
 30
0.0
 10
9.755045572916666
 20
9.140523274739582
 30
0.0
 10
9.721394856770832
 20
9.178507486979166
 30
0.0
 10
9.677218967013888
 20
9.181193033854166
 30
0.0
 10
9.67397732204861
 20
9.181382921006945
 30
0.0
 10
9.670735677083332
 20
9.181382921006945
 30
0.0
 10
9.66750759548611
 20
9.181193033854166
 30
0.0
 10
9.66750759548611
 20
9.181193033854166
 30
0.0
 10
9.53750271267361
 20
9.181193033854166
 30
0.0
 10
9.53750271267361
 20
9.181193033854166
 30
0.0
 10
9.493326822916666
 20
9.183871799045138
 30
0.0
 10
9.455335828993055
 20
9.150227864583332
 30
0.0
 10
9.452650282118055
 20
9.10604519314236
 30
0.0
 10
9.44997829861111
 20
9.061862521701388
 30
0.0
 10
9.483615451388888
 20
9.023871527777777
 30
0.0
 10
9.527804904513888
 20
9.021192762586805
 30
0.0
 10
9.53103298611111
 20
9.02099609375
 30
0.0
 10
9.534274631076388
 20
9.02099609375
 30
0.0
 10
9.53750271267361
 20
9.021192762586805
 30
0.0
  0
ENDBLK
  5
233
330
230
100
AcDbEntity
  8
0
100
AcDbBlockEnd
  0
BLOCK
  5
237
330
235
100
AcDbEntity
  8
0
100
AcDbBlockBegin
  2
block 66
 70
     0
 71
     0
 10
0.0
 20
0.0
 30
0.0
  3
block 66
  1

  0
SPLINE
  5
239
330
235
100
AcDbEntity
  8
PART
 62
     7
420
 16777215
370
    25
100
AcDbSpline
210
0.0
220
0.0
230
1.0
 70
    11
 71
     3
 72
    23
 73
    19
 74
     0
 42
0.0000000001
 43
0.0000000001
 40
0.0
 40
0.0
 40
0.0
 40
0.0
 40
1.0
 40
1.0
 40
1.0
 40
2.0
 40
2.0
 40
2.0
 40
3.0
 40
3.0
 40
3.0
 40
4.0
 40
4.0
 40
4.0
 40
5.0
 40
5.0
 40
5.0
 40
6.0
 40
6.0
 40
6.0
 40
6.0
 10
8.35250515407986
 20
9.251193576388888
 30
0.0
 10
8.35250515407986
 20
9.251193576388888
 30
0.0
 10
9.752509223090277
 20
9.251193576388888
 30
0.0
 10
9.752509223090277
 20
9.251193576388888
 30
0.0
 10
9.83535427517361
 20
9.251193576388888
 30
0.0
 10
9.902506510416666
 20
9.184034559461805
 30
0.0
 10
9.902506510416666
 20
9.101189507378471
 30
0.0
 10
9.902506510416666
 20
9.018351236979166
 30
0.0
 10
9.83535427517361
 20
8.951185438368055
 30
0.0
 10
9.752509223090277
 20
8.951185438368055
 30
0.0
 10
9.752509223090277
 20
8.951185438368055
 30
0.0
 10
8.35250515407986
 20
8.951185438368055
 30
0.0
 10
8.35250515407986
 20
8.951185438368055
 30
0.0
 10
8.269666883680555
 20
8.951185438368055
 30
0.0
 10
8.202507866753471
 20
9.018351236979166
 30
0.0
 10
8.202507866753471
 20
9.101189507378471
 30
0.0
 10
8.202507866753471
 20
9.184034559461805
 30
0.0
 10
8.269666883680555
 20
9.251193576388888
 30
0.0
 10
8.35250515407986
 20
9.251193576388888
 30
0.0
  0
ENDBLK
  5
238
330
235
100
AcDbEntity
  8
0
100
AcDbBlockEnd
  0
BLOCK
  5
23C
330
23A
100
AcDbEntity
  8
0
100
AcDbBlockBegin
  2
block 67
 70
     0
 71
     0
 10
0.0
 20
0.0
 30
0.0
  3
block 67
  1

  0
SPLINE
  5
23E
330
23A
100
AcDbEntity
  8
PART
 62
     7
420
 16777215
370
    25
100
AcDbSpline
210
0.0
220
0.0
230
1.0
 70
    11
 71
     3
 72
    29
 73
    25
 74
     0
 42
0.0000000001
 43
0.0000000001
 40
0.0
 40
0.0
 40
0.0
 40
0.0
 40
1.0
 40
1.0
 40
1.0
 40
2.0
 40
2.0
 40
2.0
 40
3.0
 40
3.0
 40
3.0
 40
4.0
 40
4.0
 40
4.0
 40
5.0
 40
5.0
 40
5.0
 40
6.0
 40
6.0
 40
6.0
 40
7.0
 40
7.0
 40
7.0
 40
8.0
 40
8.0
 40
8.0
 40
8.0
 10
8.252509223090277
 20
9.886189778645832
 30
0.0
 10
8.169664171006945
 20
9.886189778645832
 30
0.0
 10
8.10250515407986
 20
9.81903076171875
 30
0.0
 10
8.10250515407986
 20
9.736192491319445
 30
0.0
 10
8.10250515407986
 20
9.736192491319445
 30
0.0
 10
8.10250515407986
 20
8.4661865234375
 30
0.0
 10
8.10250515407986
 20
8.4661865234375
 30
0.0
 10
8.10250515407986
 20
8.383341471354166
 30
0.0
 10
8.169664171006945
 20
8.31618923611111
 30
0.0
 10
8.252509223090277
 20
8.31618923611111
 30
0.0
 10
8.252509223090277
 20
8.31618923611111
 30
0.0
 10
9.852511935763888
 20
8.31618923611111
 30
0.0
 10
9.852511935763888
 20
8.31618923611111
 30
0.0
 10
9.935356987847221
 20
8.31618923611111
 30
0.0
 10
10.00250922309028
 20
8.383341471354166
 30
0.0
 10
10.00250922309028
 20
8.4661865234375
 30
0.0
 10
10.00250922309028
 20
8.4661865234375
 30
0.0
 10
10.00250922309028
 20
9.736192491319445
 30
0.0
 10
10.00250922309028
 20
9.736192491319445
 30
0.0
 10
10.00250922309028
 20
9.81903076171875
 30
0.0
 10
9.935356987847221
 20
9.886189778645832
 30
0.0
 10
9.852511935763888
 20
9.886189778645832
 30
0.0
 10
9.852511935763888
 20
9.886189778645832
 30
0.0
 10
8.252509223090277
 20
9.886189778645832
 30
0.0
 10
8.252509223090277
 20
9.886189778645832
 30
0.0
  0
ENDBLK
  5
23D
330
23A
100
AcDbEntity
  8
0
100
AcDbBlockEnd
  0
BLOCK
  5
241
330
23F
100
AcDbEntity
  8
0
100
AcDbBlockBegin
  2
block 68
 70
     0
 71
     0
 10
0.0
 20
0.0
 30
0.0
  3
block 68
  1

  0
SPLINE
  5
243
330
23F
100
AcDbEntity
  8
PART
 62
     7
420
 16777215
370
    25
100
AcDbSpline
210
0.0
220
0.0
230
1.0
 70
    11
 71
     3
 72
    29
 73
    25
 74
     0
 42
0.0000000001
 43
0.0000000001
 40
0.0
 40
0.0
 40
0.0
 40
0.0
 40
1.0
 40
1.0
 40
1.0
 40
2.0
 40
2.0
 40
2.0
 40
3.0
 40
3.0
 40
3.0
 40
4.0
 40
4.0
 40
4.0
 40
5.0
 40
5.0
 40
5.0
 40
6.0
 40
6.0
 40
6.0
 40
7.0
 40
7.0
 40
7.0
 40
8.0
 40
8.0
 40
8.0
 40
8.0
 10
8.35250515407986
 20
7.651190863715278
 30
0.0
 10
8.35250515407986
 20
7.651190863715278
 30
0.0
 10
9.752509223090277
 20
7.651190863715278
 30
0.0
 10
9.752509223090277
 20
7.651190863715278
 30
0.0
 10
9.890584309895832
 20
7.651190863715278
 30
0.0
 10
10.00250922309028
 20
7.763115776909721
 30
0.0
 10
10.00250922309028
 20
7.901190863715278
 30
0.0
 10
10.00250922309028
 20
7.901190863715278
 30
0.0
 10
10.00250922309028
 20
10.30118815104167
 30
0.0
 10
10.00250922309028
 20
10.30118815104167
 30
0.0
 10
10.00250922309028
 20
10.43926323784722
 30
0.0
 10
9.890584309895832
 20
10.55118815104167
 30
0.0
 10
9.752509223090277
 20
10.55118815104167
 30
0.0
 10
9.752509223090277
 20
10.55118815104167
 30
0.0
 10
8.35250515407986
 20
10.55118815104167
 30
0.0
 10
8.35250515407986
 20
10.55118815104167
 30
0.0
 10
8.214436848958332
 20
10.55118815104167
 30
0.0
 10
8.10250515407986
 20
10.43926323784722
 30
0.0
 10
8.10250515407986
 20
10.30118815104167
 30
0.0
 10
8.10250515407986
 20
10.30118815104167
 30
0.0
 10
8.10250515407986
 20
7.901190863715278
 30
0.0
 10
8.10250515407986
 20
7.901190863715278
 30
0.0
 10
8.10250515407986
 20
7.763115776909721
 30
0.0
 10
8.214436848958332
 20
7.651190863715278
 30
0.0
 10
8.35250515407986
 20
7.651190863715278
 30
0.0
  0
ENDBLK
  5
242
330
23F
100
AcDbEntity
  8
0
100
AcDbBlockEnd
  0
BLOCK
  5
246
330
244
100
AcDbEntity
  8
0
100
AcDbBlockBegin
  2
block 69
 70
     0
 71
     0
 10
0.0
 20
0.0
 30
0.0
  3
block 69
  1

  0
SPLINE
  5
248
330
244
100
AcDbEntity
  8
PART
 62
     7
420
 16777215
370
    25
100
AcDbSpline
210
0.0
220
0.0
230
1.0
 70
    11
 71
     3
 72
    20
 73
    16
 74
     0
 42
0.0000000001
 43
0.0000000001
 40
0.0
 40
0.0
 40
0.0
 40
0.0
 40
1.0
 40
1.0
 40
1.0
 40
2.0
 40
2.0
 40
2.0
 40
3.0
 40
3.0
 40
3.0
 40
4.0
 40
4.0
 40
4.0
 40
5.0
 40
5.0
 40
5.0
 40
5.0
 10
8.652506510416666
 20
7.9761962890625
 30
0.0
 10
8.652506510416666
 20
8.045220269097221
 30
0.0
 10
8.596544053819445
 20
8.1011962890625
 30
0.0
 10
8.527506510416666
 20
8.1011962890625
 30
0.0
 10
8.45846896701389
 20
8.1011962890625
 30
0.0
 10
8.402506510416666
 20
8.045220269097221
 30
0.0
 10
8.402506510416666
 20
7.9761962890625
 30
0.0
 10
8.402506510416666
 20
7.907158745659721
 30
0.0
 10
8.45846896701389
 20
7.8511962890625
 30
0.0
 10
8.527506510416666
 20
7.8511962890625
 30
0.0
 10
8.596544053819445
 20
7.8511962890625
 30
0.0
 10
8.652506510416666
 20
7.907158745659721
 30
0.0
 10
8.652506510416666
 20
7.9761962890625
 30
0.0
 10
8.652506510416666
 20
7.9761962890625
 30
0.0
 10
8.652506510416666
 20
7.9761962890625
 30
0.0
 10
8.652506510416666
 20
7.9761962890625
 30
0.0
  0
ENDBLK
  5
247
330
244
100
AcDbEntity
  8
0
100
AcDbBlockEnd
  0
BLOCK
  5
24B
330
249
100
AcDbEntity
  8
0
100
AcDbBlockBegin
  2
block 70
 70
     0
 71
     0
 10
0.0
 20
0.0
 30
0.0
  3
block 70
  1

  0
POLYLINE
  5
24D
330
249
100
AcDbEntity
  8
PART
 62
     7
420
 16777215
370
    25
100
AcDb2dPolyline
 66
     1
 10
0.0
 20
0.0
 30
0.0
  0
VERTEX
  5
24E
330
24D
100
AcDbEntity
  8
PART
 62
     7
420
 16777215
370
    25
100
AcDbVertex
100
AcDb2dVertex
 10
9.002509223090277
 20
7.651190863715278
 30
0.0
  0
VERTEX
  5
24F
330
24D
100
AcDbEntity
  8
PART
 62
     7
420
 16777215
370
    25
100
AcDbVertex
100
AcDb2dVertex
 10
9.002509223090277
 20
8.31618923611111
 30
0.0
  0
SEQEND
  5
250
330
24D
100
AcDbEntity
  8
PART
370
    25
  0
ENDBLK
  5
24C
330
249
100
AcDbEntity
  8
0
100
AcDbBlockEnd
  0
BLOCK
  5
253
330
251
100
AcDbEntity
  8
0
100
AcDbBlockBegin
  2
block 71
 70
     0
 71
     0
 10
0.0
 20
0.0
 30
0.0
  3
block 71
  1

  0
SPLINE
  5
255
330
251
100
AcDbEntity
  8
PART
 62
     7
420
 16777215
370
    25
100
AcDbSpline
210
0.0
220
0.0
230
1.0
 70
    11
 71
     3
 72
    20
 73
    16
 74
     0
 42
0.0000000001
 43
0.0000000001
 40
0.0
 40
0.0
 40
0.0
 40
0.0
 40
1.0
 40
1.0
 40
1.0
 40
2.0
 40
2.0
 40
2.0
 40
3.0
 40
3.0
 40
3.0
 40
4.0
 40
4.0
 40
4.0
 40
5.0
 40
5.0
 40
5.0
 40
5.0
 10
8.762505425347221
 20
7.9761962890625
 30
0.0
 10
8.762505425347221
 20
8.10598415798611
 30
0.0
 10
8.657294379340277
 20
8.211195203993055
 30
0.0
 10
8.527506510416666
 20
8.211195203993055
 30
0.0
 10
8.397718641493055
 20
8.211195203993055
 30
0.0
 10
8.29250759548611
 20
8.10598415798611
 30
0.0
 10
8.29250759548611
 20
7.9761962890625
 30
0.0
 10
8.29250759548611
 20
7.846408420138888
 30
0.0
 10
8.397718641493055
 20
7.741183810763888
 30
0.0
 10
8.527506510416666
 20
7.741183810763888
 30
0.0
 10
8.657294379340277
 20
7.741183810763888
 30
0.0
 10
8.762505425347221
 20
7.846408420138888
 30
0.0
 10
8.762505425347221
 20
7.9761962890625
 30
0.0
 10
8.762505425347221
 20
7.9761962890625
 30
0.0
 10
8.762505425347221
 20
7.9761962890625
 30
0.0
 10
8.762505425347221
 20
7.9761962890625
 30
0.0
  0
ENDBLK
  5
254
330
251
100
AcDbEntity
  8
0
100
AcDbBlockEnd
  0
BLOCK
  5
258
330
256
100
AcDbEntity
  8
0
100
AcDbBlockBegin
  2
block 72
 70
     0
 71
     0
 10
0.0
 20
0.0
 30
0.0
  3
block 72
  1

  0
SPLINE
  5
25A
330
256
100
AcDbEntity
  8
PART
 62
     7
420
 16777215
370
    25
100
AcDbSpline
210
0.0
220
0.0
230
1.0
 70
     8
 71
     3
 72
    17
 73
    13
 74
     0
 42
0.0000000001
 43
0.0000000001
 40
0.0
 40
0.0
 40
0.0
 40
0.0
 40
1.0
 40
1.0
 40
1.0
 40
2.0
 40
2.0
 40
2.0
 40
3.0
 40
3.0
 40
3.0
 40
4.0
 40
4.0
 40
4.0
 40
4.0
 10
8.215006510416666
 20
8.316948784722221
 30
0.0
 10
8.215006510416666
 20
8.316948784722221
 30
0.0
 10
8.215006510416666
 20
7.9761962890625
 30
0.0
 10
8.215006510416666
 20
7.9761962890625
 30
0.0
 10
8.215006510416666
 20
7.803602430555555
 30
0.0
 10
8.35491943359375
 20
7.6636962890625
 30
0.0
 10
8.527506510416666
 20
7.6636962890625
 30
0.0
 10
8.70010036892361
 20
7.6636962890625
 30
0.0
 10
8.840006510416666
 20
7.803602430555555
 30
0.0
 10
8.840006510416666
 20
7.9761962890625
 30
0.0
 10
8.840006510416666
 20
7.9761962890625
 30
0.0
 10
8.840006510416666
 20
8.31618923611111
 30
0.0
 10
8.840006510416666
 20
8.31618923611111
 30
0.0
  0
ENDBLK
  5
259
330
256
100
AcDbEntity
  8
0
100
AcDbBlockEnd
  0
BLOCK
  5
25D
330
25B
100
AcDbEntity
  8
0
100
AcDbBlockBegin
  2
block 73
 70
     0
 71
     0
 10
0.0
 20
0.0
 30
0.0
  3
block 73
  1

  0
POLYLINE
  5
25F
330
25B
100
AcDbEntity
  8
PART
 62
     7
420
 16777215
370
    25
100
AcDb2dPolyline
 66
     1
 10
0.0
 20
0.0
 30
0.0
  0
VERTEX
  5
260
330
25F
100
AcDbEntity
  8
PART
 62
     7
420
 16777215
370
    25
100
AcDbVertex
100
AcDb2dVertex
 10
8.135999891493055
 20
8.9761962890625
 30
0.0
  0
VERTEX
  5
261
330
25F
100
AcDbEntity
  8
PART
 62
     7
420
 16777215
370
    25
100
AcDbVertex
100
AcDb2dVertex
 10
8.503499348958332
 20
8.339667426215277
 30
0.0
  0
VERTEX
  5
262
330
25F
100
AcDbEntity
  8
PART
 62
     7
420
 16777215
370
    25
100
AcDbVertex
100
AcDb2dVertex
 10
8.720011393229166
 20
8.464667426215277
 30
0.0
  0
VERTEX
  5
263
330
25F
100
AcDbEntity
  8
PART
 62
     7
420
 16777215
370
    25
100
AcDbVertex
100
AcDb2dVertex
 10
8.456434461805555
 20
8.921196831597221
 30
0.0
  0
SEQEND
  5
264
330
25F
100
AcDbEntity
  8
PART
370
    25
  0
ENDBLK
  5
25E
330
25B
100
AcDbEntity
  8
0
100
AcDbBlockEnd
  0
BLOCK
  5
267
330
265
100
AcDbEntity
  8
0
100
AcDbBlockBegin
  2
block 74
 70
     0
 71
     0
 10
0.0
 20
0.0
 30
0.0
  3
block 74
  1

  0
SPLINE
  5
269
330
265
100
AcDbEntity
  8
PART
 62
     7
420
 16777215
370
    25
100
AcDbSpline
210
0.0
220
0.0
230
1.0
 70
    11
 71
     3
 72
    29
 73
    25
 74
     0
 42
0.0000000001
 43
0.0000000001
 40
0.0
 40
0.0
 40
0.0
 40
0.0
 40
1.0
 40
1.0
 40
1.0
 40
2.0
 40
2.0
 40
2.0
 40
3.0
 40
3.0
 40
3.0
 40
4.0
 40
4.0
 40
4.0
 40
5.0
 40
5.0
 40
5.0
 40
6.0
 40
6.0
 40
6.0
 40
7.0
 40
7.0
 40
7.0
 40
8.0
 40
8.0
 40
8.0
 40
8.0
 10
8.33645968967014
 20
8.768988715277777
 30
0.0
 10
8.33645968967014
 20
8.768988715277777
 30
0.0
 10
8.50552029079861
 20
8.47616916232639
 30
0.0
 10
8.50552029079861
 20
8.47616916232639
 30
0.0
 10
8.525288899739582
 20
8.436564127604166
 30
0.0
 10
8.573418511284721
 20
8.420491536458332
 30
0.0
 10
8.613023546006945
 20
8.440253363715277
 30
0.0
 10
8.652628580729166
 20
8.460028754340277
 30
0.0
 10
8.668707953559027
 20
8.508165147569445
 30
0.0
 10
8.648939344618055
 20
8.54775661892361
 30
0.0
 10
8.64748806423611
 20
8.5506591796875
 30
0.0
 10
8.645867241753471
 20
8.553466796875
 30
0.0
 10
8.644083658854166
 20
8.556165907118055
 30
0.0
 10
8.644083658854166
 20
8.556165907118055
 30
0.0
 10
8.475023057725695
 20
8.848985460069445
 30
0.0
 10
8.475023057725695
 20
8.848985460069445
 30
0.0
 10
8.455254448784721
 20
8.888590494791666
 30
0.0
 10
8.407124837239582
 20
8.9046630859375
 30
0.0
 10
8.36751980251736
 20
8.884901258680555
 30
0.0
 10
8.32791476779514
 20
8.865125868055555
 30
0.0
 10
8.311835394965277
 20
8.81698947482639
 30
0.0
 10
8.331610785590277
 20
8.777384440104166
 30
0.0
 10
8.333055284288195
 20
8.774495442708332
 30
0.0
 10
8.334676106770832
 20
8.771687825520832
 30
0.0
 10
8.33645968967014
 20
8.768988715277777
 30
0.0
  0
ENDBLK
  5
268
330
265
100
AcDbEntity
  8
0
100
AcDbBlockEnd
  0
BLOCK
  5
26C
330
26A
100
AcDbEntity
  8
0
100
AcDbBlockBegin
  2
block 75
 70
     0
 71
     0
 10
0.0
 20
0.0
 30
0.0
  3
block 75
  1

  0
POLYLINE
  5
26E
330
26A
100
AcDbEntity
  8
PART
 62
     7
420
 16777215
370
    25
100
AcDb2dPolyline
 66
     1
 10
0.0
 20
0.0
 30
0.0
  0
VERTEX
  5
26F
330
26E
100
AcDbEntity
  8
PART
 62
     7
420
 16777215
370
    25
100
AcDbVertex
100
AcDb2dVertex
 10
8.179300944010416
 20
9.001193576388888
 30
0.0
  0
VERTEX
  5
270
330
26E
100
AcDbEntity
  8
PART
 62
     7
420
 16777215
370
    25
100
AcDbVertex
100
AcDb2dVertex
 10
8.546800401475695
 20
8.364664713541666
 30
0.0
  0
SEQEND
  5
271
330
26E
100
AcDbEntity
  8
PART
370
    25
  0
ENDBLK
  5
26D
330
26A
100
AcDbEntity
  8
0
100
AcDbBlockEnd
  0
BLOCK
  5
274
330
272
100
AcDbEntity
  8
0
100
AcDbBlockBegin
  2
block 76
 70
     0
 71
     0
 10
0.0
 20
0.0
 30
0.0
  3
block 76
  1

  0
SPLINE
  5
276
330
272
100
AcDbEntity
  8
PART
 62
     7
420
 16777215
370
    25
100
AcDbSpline
210
0.0
220
0.0
230
1.0
 70
    11
 71
     3
 72
    20
 73
    16
 74
     0
 42
0.0000000001
 43
0.0000000001
 40
0.0
 40
0.0
 40
0.0
 40
0.0
 40
1.0
 40
1.0
 40
1.0
 40
2.0
 40
2.0
 40
2.0
 40
3.0
 40
3.0
 40
3.0
 40
4.0
 40
4.0
 40
4.0
 40
5.0
 40
5.0
 40
5.0
 40
5.0
 10
8.35250515407986
 20
8.4661865234375
 30
0.0
 10
8.35250515407986
 20
8.521416558159721
 30
0.0
 10
8.3077392578125
 20
8.56618923611111
 30
0.0
 10
8.252509223090277
 20
8.56618923611111
 30
0.0
 10
8.197279188368055
 20
8.56618923611111
 30
0.0
 10
8.152506510416666
 20
8.521416558159721
 30
0.0
 10
8.152506510416666
 20
8.4661865234375
 30
0.0
 10
8.152506510416666
 20
8.410956488715277
 30
0.0
 10
8.197279188368055
 20
8.36618381076389
 30
0.0
 10
8.252509223090277
 20
8.36618381076389
 30
0.0
 10
8.3077392578125
 20
8.36618381076389
 30
0.0
 10
8.35250515407986
 20
8.410956488715277
 30
0.0
 10
8.35250515407986
 20
8.4661865234375
 30
0.0
 10
8.35250515407986
 20
8.4661865234375
 30
0.0
 10
8.35250515407986
 20
8.4661865234375
 30
0.0
 10
8.35250515407986
 20
8.4661865234375
 30
0.0
  0
ENDBLK
  5
275
330
272
100
AcDbEntity
  8
0
100
AcDbBlockEnd
  0
BLOCK
  5
279
330
277
100
AcDbEntity
  8
0
100
AcDbBlockBegin
  2
block 77
 70
     0
 71
     0
 10
0.0
 20
0.0
 30
0.0
  3
block 77
  1

  0
SPLINE
  5
27B
330
277
100
AcDbEntity
  8
PART
 62
     7
420
 16777215
370
    25
100
AcDbSpline
210
0.0
220
0.0
230
1.0
 70
    11
 71
     3
 72
    20
 73
    16
 74
     0
 42
0.0000000001
 43
0.0000000001
 40
0.0
 40
0.0
 40
0.0
 40
0.0
 40
1.0
 40
1.0
 40
1.0
 40
2.0
 40
2.0
 40
2.0
 40
3.0
 40
3.0
 40
3.0
 40
4.0
 40
4.0
 40
4.0
 40
5.0
 40
5.0
 40
5.0
 40
5.0
 10
8.402506510416666
 20
8.4661865234375
 30
0.0
 10
8.402506510416666
 20
8.549031575520832
 30
0.0
 10
8.335347493489582
 20
8.61618381076389
 30
0.0
 10
8.252509223090277
 20
8.61618381076389
 30
0.0
 10
8.169664171006945
 20
8.61618381076389
 30
0.0
 10
8.10250515407986
 20
8.549031575520832
 30
0.0
 10
8.10250515407986
 20
8.4661865234375
 30
0.0
 10
8.10250515407986
 20
8.383341471354166
 30
0.0
 10
8.169664171006945
 20
8.31618923611111
 30
0.0
 10
8.252509223090277
 20
8.31618923611111
 30
0.0
 10
8.33535427517361
 20
8.31618923611111
 30
0.0
 10
8.402506510416666
 20
8.383341471354166
 30
0.0
 10
8.402506510416666
 20
8.4661865234375
 30
0.0
 10
8.402506510416666
 20
8.4661865234375
 30
0.0
 10
8.402506510416666
 20
8.4661865234375
 30
0.0
 10
8.402506510416666
 20
8.4661865234375
 30
0.0
  0
ENDBLK
  5
27A
330
277
100
AcDbEntity
  8
0
100
AcDbBlockEnd
  0
BLOCK
  5
27E
330
27C
100
AcDbEntity
  8
0
100
AcDbBlockBegin
  2
block 78
 70
     0
 71
     0
 10
0.0
 20
0.0
 30
0.0
  3
block 78
  1

  0
POLYLINE
  5
280
330
27C
100
AcDbEntity
  8
PART
 62
     7
420
 16777215
370
    25
100
AcDb2dPolyline
 66
     1
 10
0.0
 20
0.0
 30
0.0
  0
VERTEX
  5
281
330
280
100
AcDbEntity
  8
PART
 62
     7
420
 16777215
370
    25
100
AcDbVertex
100
AcDb2dVertex
 10
9.102511935763888
 20
7.651190863715278
 30
0.0
  0
VERTEX
  5
282
330
280
100
AcDbEntity
  8
PART
 62
     7
420
 16777215
370
    25
100
AcDbVertex
100
AcDb2dVertex
 10
9.102511935763888
 20
8.31618923611111
 30
0.0
  0
SEQEND
  5
283
330
280
100
AcDbEntity
  8
PART
370
    25
  0
ENDBLK
  5
27F
330
27C
100
AcDbEntity
  8
0
100
AcDbBlockEnd
  0
BLOCK
  5
286
330
284
100
AcDbEntity
  8
0
100
AcDbBlockBegin
  2
block 79
 70
     0
 71
     0
 10
0.0
 20
0.0
 30
0.0
  3
block 79
  1

  0
SPLINE
  5
288
330
284
100
AcDbEntity
  8
PART
 62
     7
420
 16777215
370
    25
100
AcDbSpline
210
0.0
220
0.0
230
1.0
 70
    11
 71
     3
 72
    20
 73
    16
 74
     0
 42
0.0000000001
 43
0.0000000001
 40
0.0
 40
0.0
 40
0.0
 40
0.0
 40
1.0
 40
1.0
 40
1.0
 40
2.0
 40
2.0
 40
2.0
 40
3.0
 40
3.0
 40
3.0
 40
4.0
 40
4.0
 40
4.0
 40
5.0
 40
5.0
 40
5.0
 40
5.0
 10
9.707004123263888
 20
7.9761962890625
 30
0.0
 10
9.707004123263888
 20
8.047715928819445
 30
0.0
 10
9.649034288194445
 20
8.10568576388889
 30
0.0
 10
9.577501085069445
 20
8.10568576388889
 30
0.0
 10
9.5059814453125
 20
8.10568576388889
 30
0.0
 10
9.448011610243055
 20
8.047715928819445
 30
0.0
 10
9.448011610243055
 20
7.9761962890625
 30
0.0
 10
9.448011610243055
 20
7.904676649305555
 30
0.0
 10
9.5059814453125
 20
7.846693250868055
 30
0.0
 10
9.577501085069445
 20
7.846693250868055
 30
0.0
 10
9.649034288194445
 20
7.846693250868055
 30
0.0
 10
9.707004123263888
 20
7.904676649305555
 30
0.0
 10
9.707004123263888
 20
7.9761962890625
 30
0.0
 10
9.707004123263888
 20
7.9761962890625
 30
0.0
 10
9.707004123263888
 20
7.9761962890625
 30
0.0
 10
9.707004123263888
 20
7.9761962890625
 30
0.0
  0
ENDBLK
  5
287
330
284
100
AcDbEntity
  8
0
100
AcDbBlockEnd
  0
BLOCK
  5
28B
330
289
100
AcDbEntity
  8
0
100
AcDbBlockBegin
  2
block 80
 70
     0
 71
     0
 10
0.0
 20
0.0
 30
0.0
  3
block 80
  1

  0
SPLINE
  5
28D
330
289
100
AcDbEntity
  8
PART
 62
     7
420
 16777215
370
    25
100
AcDbSpline
210
0.0
220
0.0
230
1.0
 70
    11
 71
     3
 72
    20
 73
    16
 74
     0
 42
0.0000000001
 43
0.0000000001
 40
0.0
 40
0.0
 40
0.0
 40
0.0
 40
1.0
 40
1.0
 40
1.0
 40
2.0
 40
2.0
 40
2.0
 40
3.0
 40
3.0
 40
3.0
 40
4.0
 40
4.0
 40
4.0
 40
5.0
 40
5.0
 40
5.0
 40
5.0
 10
9.952501085069445
 20
8.4661865234375
 30
0.0
 10
9.952501085069445
 20
8.521416558159721
 30
0.0
 10
9.90774197048611
 20
8.56618923611111
 30
0.0
 10
9.852511935763888
 20
8.56618923611111
 30
0.0
 10
9.797281901041666
 20
8.56618923611111
 30
0.0
 10
9.752509223090277
 20
8.521416558159721
 30
0.0
 10
9.752509223090277
 20
8.4661865234375
 30
0.0
 10
9.752509223090277
 20
8.410956488715277
 30
0.0
 10
9.797281901041666
 20
8.36618381076389
 30
0.0
 10
9.852511935763888
 20
8.36618381076389
 30
0.0
 10
9.90774197048611
 20
8.36618381076389
 30
0.0
 10
9.952501085069445
 20
8.410956488715277
 30
0.0
 10
9.952501085069445
 20
8.4661865234375
 30
0.0
 10
9.952501085069445
 20
8.4661865234375
 30
0.0
 10
9.952501085069445
 20
8.4661865234375
 30
0.0
 10
9.952501085069445
 20
8.4661865234375
 30
0.0
  0
ENDBLK
  5
28C
330
289
100
AcDbEntity
  8
0
100
AcDbBlockEnd
  0
BLOCK
  5
290
330
28E
100
AcDbEntity
  8
0
100
AcDbBlockBegin
  2
block 81
 70
     0
 71
     0
 10
0.0
 20
0.0
 30
0.0
  3
block 81
  1

  0
SPLINE
  5
292
330
28E
100
AcDbEntity
  8
PART
 62
     7
420
 16777215
370
    25
100
AcDbSpline
210
0.0
220
0.0
230
1.0
 70
    11
 71
     3
 72
    20
 73
    16
 74
     0
 42
0.0000000001
 43
0.0000000001
 40
0.0
 40
0.0
 40
0.0
 40
0.0
 40
1.0
 40
1.0
 40
1.0
 40
2.0
 40
2.0
 40
2.0
 40
3.0
 40
3.0
 40
3.0
 40
4.0
 40
4.0
 40
4.0
 40
5.0
 40
5.0
 40
5.0
 40
5.0
 10
10.00250922309028
 20
8.4661865234375
 30
0.0
 10
10.00250922309028
 20
8.549031575520832
 30
0.0
 10
9.935356987847221
 20
8.61618381076389
 30
0.0
 10
9.852511935763888
 20
8.61618381076389
 30
0.0
 10
9.769666883680555
 20
8.61618381076389
 30
0.0
 10
9.702501085069445
 20
8.549031575520832
 30
0.0
 10
9.702501085069445
 20
8.4661865234375
 30
0.0
 10
9.702501085069445
 20
8.383341471354166
 30
0.0
 10
9.769666883680555
 20
8.31618923611111
 30
0.0
 10
9.852511935763888
 20
8.31618923611111
 30
0.0
 10
9.935356987847221
 20
8.31618923611111
 30
0.0
 10
10.00250922309028
 20
8.383341471354166
 30
0.0
 10
10.00250922309028
 20
8.4661865234375
 30
0.0
 10
10.00250922309028
 20
8.4661865234375
 30
0.0
 10
10.00250922309028
 20
8.4661865234375
 30
0.0
 10
10.00250922309028
 20
8.4661865234375
 30
0.0
  0
ENDBLK
  5
291
330
28E
100
AcDbEntity
  8
0
100
AcDbBlockEnd
  0
BLOCK
  5
295
330
293
100
AcDbEntity
  8
0
100
AcDbBlockBegin
  2
block 82
 70
     0
 71
     0
 10
0.0
 20
0.0
 30
0.0
  3
block 82
  1

  0
SPLINE
  5
297
330
293
100
AcDbEntity
  8
PART
 62
     7
420
 16777215
370
    25
100
AcDbSpline
210
0.0
220
0.0
230
1.0
 70
    11
 71
     3
 72
    20
 73
    16
 74
     0
 42
0.0000000001
 43
0.0000000001
 40
0.0
 40
0.0
 40
0.0
 40
0.0
 40
1.0
 40
1.0
 40
1.0
 40
2.0
 40
2.0
 40
2.0
 40
3.0
 40
3.0
 40
3.0
 40
4.0
 40
4.0
 40
4.0
 40
5.0
 40
5.0
 40
5.0
 40
5.0
 10
8.65700954861111
 20
10.22618950737847
 30
0.0
 10
8.65700954861111
 20
10.29770914713542
 30
0.0
 10
8.59902615017361
 20
10.35569254557292
 30
0.0
 10
8.527506510416666
 20
10.35569254557292
 30
0.0
 10
8.455986870659721
 20
10.35569254557292
 30
0.0
 10
8.39801025390625
 20
10.29770914713542
 30
0.0
 10
8.39801025390625
 20
10.22618950737847
 30
0.0
 10
8.39801025390625
 20
10.15466986762153
 30
0.0
 10
8.455986870659721
 20
10.09669325086806
 30
0.0
 10
8.527506510416666
 20
10.09669325086806
 30
0.0
 10
8.59902615017361
 20
10.09669325086806
 30
0.0
 10
8.65700954861111
 20
10.15466986762153
 30
0.0
 10
8.65700954861111
 20
10.22618950737847
 30
0.0
 10
8.65700954861111
 20
10.22618950737847
 30
0.0
 10
8.65700954861111
 20
10.22618950737847
 30
0.0
 10
8.65700954861111
 20
10.22618950737847
 30
0.0
  0
ENDBLK
  5
296
330
293
100
AcDbEntity
  8
0
100
AcDbBlockEnd
  0
BLOCK
  5
29A
330
298
100
AcDbEntity
  8
0
100
AcDbBlockBegin
  2
block 83
 70
     0
 71
     0
 10
0.0
 20
0.0
 30
0.0
  3
block 83
  1

  0
POLYLINE
  5
29C
330
298
100
AcDbEntity
  8
PART
 62
     7
420
 16777215
370
    25
100
AcDb2dPolyline
 66
     1
 10
0.0
 20
0.0
 30
0.0
  0
VERTEX
  5
29D
330
29C
100
AcDbEntity
  8
PART
 62
     7
420
 16777215
370
    25
100
AcDbVertex
100
AcDb2dVertex
 10
9.002509223090277
 20
10.55118815104167
 30
0.0
  0
VERTEX
  5
29E
330
29C
100
AcDbEntity
  8
PART
 62
     7
420
 16777215
370
    25
100
AcDbVertex
100
AcDb2dVertex
 10
9.002509223090277
 20
9.886189778645832
 30
0.0
  0
SEQEND
  5
29F
330
29C
100
AcDbEntity
  8
PART
370
    25
  0
ENDBLK
  5
29B
330
298
100
AcDbEntity
  8
0
100
AcDbBlockEnd
  0
BLOCK
  5
2A2
330
2A0
100
AcDbEntity
  8
0
100
AcDbBlockBegin
  2
block 84
 70
     0
 71
     0
 10
0.0
 20
0.0
 30
0.0
  3
block 84
  1

  0
SPLINE
  5
2A4
330
2A0
100
AcDbEntity
  8
PART
 62
     7
420
 16777215
370
    25
100
AcDbSpline
210
0.0
220
0.0
230
1.0
 70
    11
 71
     3
 72
    20
 73
    16
 74
     0
 42
0.0000000001
 43
0.0000000001
 40
0.0
 40
0.0
 40
0.0
 40
0.0
 40
1.0
 40
1.0
 40
1.0
 40
2.0
 40
2.0
 40
2.0
 40
3.0
 40
3.0
 40
3.0
 40
4.0
 40
4.0
 40
4.0
 40
5.0
 40
5.0
 40
5.0
 40
5.0
 10
8.35250515407986
 20
9.736192491319445
 30
0.0
 10
8.35250515407986
 20
9.791422526041666
 30
0.0
 10
8.3077392578125
 20
9.836188422309027
 30
0.0
 10
8.252509223090277
 20
9.836188422309027
 30
0.0
 10
8.197279188368055
 20
9.836188422309027
 30
0.0
 10
8.152506510416666
 20
9.791422526041666
 30
0.0
 10
8.152506510416666
 20
9.736192491319445
 30
0.0
 10
8.152506510416666
 20
9.680962456597221
 30
0.0
 10
8.197279188368055
 20
9.636189778645832
 30
0.0
 10
8.252509223090277
 20
9.636189778645832
 30
0.0
 10
8.3077392578125
 20
9.636189778645832
 30
0.0
 10
8.35250515407986
 20
9.680962456597221
 30
0.0
 10
8.35250515407986
 20
9.736192491319445
 30
0.0
 10
8.35250515407986
 20
9.736192491319445
 30
0.0
 10
8.35250515407986
 20
9.736192491319445
 30
0.0
 10
8.35250515407986
 20
9.736192491319445
 30
0.0
  0
ENDBLK
  5
2A3
330
2A0
100
AcDbEntity
  8
0
100
AcDbBlockEnd
  0
BLOCK
  5
2A7
330
2A5
100
AcDbEntity
  8
0
100
AcDbBlockBegin
  2
block 85
 70
     0
 71
     0
 10
0.0
 20
0.0
 30
0.0
  3
block 85
  1

  0
SPLINE
  5
2A9
330
2A5
100
AcDbEntity
  8
PART
 62
     7
420
 16777215
370
    25
100
AcDbSpline
210
0.0
220
0.0
230
1.0
 70
    11
 71
     3
 72
    20
 73
    16
 74
     0
 42
0.0000000001
 43
0.0000000001
 40
0.0
 40
0.0
 40
0.0
 40
0.0
 40
1.0
 40
1.0
 40
1.0
 40
2.0
 40
2.0
 40
2.0
 40
3.0
 40
3.0
 40
3.0
 40
4.0
 40
4.0
 40
4.0
 40
5.0
 40
5.0
 40
5.0
 40
5.0
 10
8.402506510416666
 20
9.736192491319445
 30
0.0
 10
8.402506510416666
 20
9.81903076171875
 30
0.0
 10
8.335347493489582
 20
9.886189778645832
 30
0.0
 10
8.252509223090277
 20
9.886189778645832
 30
0.0
 10
8.169664171006945
 20
9.886189778645832
 30
0.0
 10
8.10250515407986
 20
9.81903076171875
 30
0.0
 10
8.10250515407986
 20
9.736192491319445
 30
0.0
 10
8.10250515407986
 20
9.65334743923611
 30
0.0
 10
8.169664171006945
 20
9.586188422309027
 30
0.0
 10
8.252509223090277
 20
9.586188422309027
 30
0.0
 10
8.33535427517361
 20
9.586188422309027
 30
0.0
 10
8.402506510416666
 20
9.65334743923611
 30
0.0
 10
8.402506510416666
 20
9.736192491319445
 30
0.0
 10
8.402506510416666
 20
9.736192491319445
 30
0.0
 10
8.402506510416666
 20
9.736192491319445
 30
0.0
 10
8.402506510416666
 20
9.736192491319445
 30
0.0
  0
ENDBLK
  5
2A8
330
2A5
100
AcDbEntity
  8
0
100
AcDbBlockEnd
  0
BLOCK
  5
2AC
330
2AA
100
AcDbEntity
  8
0
100
AcDbBlockBegin
  2
block 86
 70
     0
 71
     0
 10
0.0
 20
0.0
 30
0.0
  3
block 86
  1

  0
SPLINE
  5
2AE
330
2AA
100
AcDbEntity
  8
PART
 62
     7
420
 16777215
370
    25
100
AcDbSpline
210
0.0
220
0.0
230
1.0
 70
     8
 71
     3
 72
    17
 73
    13
 74
     0
 42
0.0000000001
 43
0.0000000001
 40
0.0
 40
0.0
 40
0.0
 40
0.0
 40
1.0
 40
1.0
 40
1.0
 40
2.0
 40
2.0
 40
2.0
 40
3.0
 40
3.0
 40
3.0
 40
4.0
 40
4.0
 40
4.0
 40
4.0
 10
9.890001085069445
 20
9.88543701171875
 30
0.0
 10
9.890001085069445
 20
9.88543701171875
 30
0.0
 10
9.890001085069445
 20
10.22618950737847
 30
0.0
 10
9.890001085069445
 20
10.22618950737847
 30
0.0
 10
9.890001085069445
 20
10.39877658420139
 30
0.0
 10
9.750094943576388
 20
10.53868950737847
 30
0.0
 10
9.577501085069445
 20
10.53868950737847
 30
0.0
 10
9.404920789930555
 20
10.53868950737847
 30
0.0
 10
9.265001085069445
 20
10.39877658420139
 30
0.0
 10
9.265001085069445
 20
10.22618950737847
 30
0.0
 10
9.265001085069445
 20
10.22618950737847
 30
0.0
 10
9.265001085069445
 20
9.886189778645832
 30
0.0
 10
9.265001085069445
 20
9.886189778645832
 30
0.0
  0
ENDBLK
  5
2AD
330
2AA
100
AcDbEntity
  8
0
100
AcDbBlockEnd
  0
BLOCK
  5
2B1
330
2AF
100
AcDbEntity
  8
0
100
AcDbBlockBegin
  2
block 87
 70
     0
 71
     0
 10
0.0
 20
0.0
 30
0.0
  3
block 87
  1

  0
SPLINE
  5
2B3
330
2AF
100
AcDbEntity
  8
PART
 62
     7
420
 16777215
370
    25
100
AcDbSpline
210
0.0
220
0.0
230
1.0
 70
    11
 71
     3
 72
    20
 73
    16
 74
     0
 42
0.0000000001
 43
0.0000000001
 40
0.0
 40
0.0
 40
0.0
 40
0.0
 40
1.0
 40
1.0
 40
1.0
 40
2.0
 40
2.0
 40
2.0
 40
3.0
 40
3.0
 40
3.0
 40
4.0
 40
4.0
 40
4.0
 40
5.0
 40
5.0
 40
5.0
 40
5.0
 10
9.812513563368055
 20
10.22618950737847
 30
0.0
 10
9.812513563368055
 20
10.35597737630208
 30
0.0
 10
9.707288953993055
 20
10.46118842230903
 30
0.0
 10
9.577501085069445
 20
10.46118842230903
 30
0.0
 10
9.447726779513888
 20
10.46118842230903
 30
0.0
 10
9.342502170138888
 20
10.35597737630208
 30
0.0
 10
9.342502170138888
 20
10.22618950737847
 30
0.0
 10
9.342502170138888
 20
10.09640163845486
 30
0.0
 10
9.447726779513888
 20
9.991190592447916
 30
0.0
 10
9.577501085069445
 20
9.991190592447916
 30
0.0
 10
9.707288953993055
 20
9.991190592447916
 30
0.0
 10
9.812513563368055
 20
10.09640163845486
 30
0.0
 10
9.812513563368055
 20
10.22618950737847
 30
0.0
 10
9.812513563368055
 20
10.22618950737847
 30
0.0
 10
9.812513563368055
 20
10.22618950737847
 30
0.0
 10
9.812513563368055
 20
10.22618950737847
 30
0.0
  0
ENDBLK
  5
2B2
330
2AF
100
AcDbEntity
  8
0
100
AcDbBlockEnd
  0
BLOCK
  5
2B6
330
2B4
100
AcDbEntity
  8
0
100
AcDbBlockBegin
  2
block 88
 70
     0
 71
     0
 10
0.0
 20
0.0
 30
0.0
  3
block 88
  1

  0
SPLINE
  5
2B8
330
2B4
100
AcDbEntity
  8
PART
 62
     7
420
 16777215
370
    25
100
AcDbSpline
210
0.0
220
0.0
230
1.0
 70
    11
 71
     3
 72
    20
 73
    16
 74
     0
 42
0.0000000001
 43
0.0000000001
 40
0.0
 40
0.0
 40
0.0
 40
0.0
 40
1.0
 40
1.0
 40
1.0
 40
2.0
 40
2.0
 40
2.0
 40
3.0
 40
3.0
 40
3.0
 40
4.0
 40
4.0
 40
4.0
 40
5.0
 40
5.0
 40
5.0
 40
5.0
 10
9.702501085069445
 20
10.22618950737847
 30
0.0
 10
9.702501085069445
 20
10.29522705078125
 30
0.0
 10
9.646538628472221
 20
10.35118950737847
 30
0.0
 10
9.577501085069445
 20
10.35118950737847
 30
0.0
 10
9.508477105034721
 20
10.35118950737847
 30
0.0
 10
9.452501085069445
 20
10.29522705078125
 30
0.0
 10
9.452501085069445
 20
10.22618950737847
 30
0.0
 10
9.452501085069445
 20
10.15715196397569
 30
0.0
 10
9.508477105034721
 20
10.10118950737847
 30
0.0
 10
9.577501085069445
 20
10.10118950737847
 30
0.0
 10
9.646538628472221
 20
10.10118950737847
 30
0.0
 10
9.702501085069445
 20
10.15715196397569
 30
0.0
 10
9.702501085069445
 20
10.22618950737847
 30
0.0
 10
9.702501085069445
 20
10.22618950737847
 30
0.0
 10
9.702501085069445
 20
10.22618950737847
 30
0.0
 10
9.702501085069445
 20
10.22618950737847
 30
0.0
  0
ENDBLK
  5
2B7
330
2B4
100
AcDbEntity
  8
0
100
AcDbBlockEnd
  0
BLOCK
  5
2BB
330
2B9
100
AcDbEntity
  8
0
100
AcDbBlockBegin
  2
block 89
 70
     0
 71
     0
 10
0.0
 20
0.0
 30
0.0
  3
block 89
  1

  0
POLYLINE
  5
2BD
330
2B9
100
AcDbEntity
  8
PART
 62
     7
420
 16777215
370
    25
100
AcDb2dPolyline
 66
     1
 10
0.0
 20
0.0
 30
0.0
  0
VERTEX
  5
2BE
330
2BD
100
AcDbEntity
  8
PART
 62
     7
420
 16777215
370
    25
100
AcDbVertex
100
AcDb2dVertex
 10
9.102511935763888
 20
10.55118815104167
 30
0.0
  0
VERTEX
  5
2BF
330
2BD
100
AcDbEntity
  8
PART
 62
     7
420
 16777215
370
    25
100
AcDbVertex
100
AcDb2dVertex
 10
9.102511935763888
 20
9.886189778645832
 30
0.0
  0
SEQEND
  5
2C0
330
2BD
100
AcDbEntity
  8
PART
370
    25
  0
ENDBLK
  5
2BC
330
2B9
100
AcDbEntity
  8
0
100
AcDbBlockEnd
  0
BLOCK
  5
2C3
330
2C1
100
AcDbEntity
  8
0
100
AcDbBlockBegin
  2
block 90
 70
     0
 71
     0
 10
0.0
 20
0.0
 30
0.0
  3
block 90
  1

  0
SPLINE
  5
2C5
330
2C1
100
AcDbEntity
  8
PART
 62
     7
420
 16777215
370
    25
100
AcDbSpline
210
0.0
220
0.0
230
1.0
 70
    11
 71
     3
 72
    20
 73
    16
 74
     0
 42
0.0000000001
 43
0.0000000001
 40
0.0
 40
0.0
 40
0.0
 40
0.0
 40
1.0
 40
1.0
 40
1.0
 40
2.0
 40
2.0
 40
2.0
 40
3.0
 40
3.0
 40
3.0
 40
4.0
 40
4.0
 40
4.0
 40
5.0
 40
5.0
 40
5.0
 40
5.0
 10
9.952501085069445
 20
9.736192491319445
 30
0.0
 10
9.952501085069445
 20
9.791422526041666
 30
0.0
 10
9.90774197048611
 20
9.836188422309027
 30
0.0
 10
9.852511935763888
 20
9.836188422309027
 30
0.0
 10
9.797281901041666
 20
9.836188422309027
 30
0.0
 10
9.752509223090277
 20
9.791422526041666
 30
0.0
 10
9.752509223090277
 20
9.736192491319445
 30
0.0
 10
9.752509223090277
 20
9.680962456597221
 30
0.0
 10
9.797281901041666
 20
9.636189778645832
 30
0.0
 10
9.852511935763888
 20
9.636189778645832
 30
0.0
 10
9.90774197048611
 20
9.636189778645832
 30
0.0
 10
9.952501085069445
 20
9.680962456597221
 30
0.0
 10
9.952501085069445
 20
9.736192491319445
 30
0.0
 10
9.952501085069445
 20
9.736192491319445
 30
0.0
 10
9.952501085069445
 20
9.736192491319445
 30
0.0
 10
9.952501085069445
 20
9.736192491319445
 30
0.0
  0
ENDBLK
  5
2C4
330
2C1
100
AcDbEntity
  8
0
100
AcDbBlockEnd
  0
BLOCK
  5
2C8
330
2C6
100
AcDbEntity
  8
0
100
AcDbBlockBegin
  2
block 91
 70
     0
 71
     0
 10
0.0
 20
0.0
 30
0.0
  3
block 91
  1

  0
SPLINE
  5
2CA
330
2C6
100
AcDbEntity
  8
PART
 62
     7
420
 16777215
370
    25
100
AcDbSpline
210
0.0
220
0.0
230
1.0
 70
    11
 71
     3
 72
    20
 73
    16
 74
     0
 42
0.0000000001
 43
0.0000000001
 40
0.0
 40
0.0
 40
0.0
 40
0.0
 40
1.0
 40
1.0
 40
1.0
 40
2.0
 40
2.0
 40
2.0
 40
3.0
 40
3.0
 40
3.0
 40
4.0
 40
4.0
 40
4.0
 40
5.0
 40
5.0
 40
5.0
 40
5.0
 10
10.00250922309028
 20
9.736192491319445
 30
0.0
 10
10.00250922309028
 20
9.81903076171875
 30
0.0
 10
9.935356987847221
 20
9.886189778645832
 30
0.0
 10
9.852511935763888
 20
9.886189778645832
 30
0.0
 10
9.769666883680555
 20
9.886189778645832
 30
0.0
 10
9.702501085069445
 20
9.81903076171875
 30
0.0
 10
9.702501085069445
 20
9.736192491319445
 30
0.0
 10
9.702501085069445
 20
9.65334743923611
 30
0.0
 10
9.769666883680555
 20
9.586188422309027
 30
0.0
 10
9.852511935763888
 20
9.586188422309027
 30
0.0
 10
9.935356987847221
 20
9.586188422309027
 30
0.0
 10
10.00250922309028
 20
9.65334743923611
 30
0.0
 10
10.00250922309028
 20
9.736192491319445
 30
0.0
 10
10.00250922309028
 20
9.736192491319445
 30
0.0
 10
10.00250922309028
 20
9.736192491319445
 30
0.0
 10
10.00250922309028
 20
9.736192491319445
 30
0.0
  0
ENDBLK
  5
2C9
330
2C6
100
AcDbEntity
  8
0
100
AcDbBlockEnd
  0
ENDSEC
  0
SECTION
  2
ENTITIES
  0
INSERT
  5
3D
330
1F
100
AcDbEntity
  8
DIMLAY
100
AcDbBlockReference
  2
block 2
 10
0.0
 20
0.0
 30
0.0
  0
INSERT
  5
50
330
1F
100
AcDbEntity
  8
DIMLAY
100
AcDbBlockReference
  2
block 3
 10
0.0
 20
0.0
 30
0.0
  0
INSERT
  5
A8
330
1F
100
AcDbEntity
  8
DIMLAY
100
AcDbBlockReference
  2
block 14
 10
0.0
 20
0.0
 30
0.0
  0
INSERT
  5
AE
330
1F
100
AcDbEntity
  8
DIMLAY
100
AcDbBlockReference
  2
block 15
 10
0.0
 20
0.0
 30
0.0
  0
INSERT
  5
C1
330
1F
100
AcDbEntity
  8
DIMLAY
100
AcDbBlockReference
  2
block 16
 10
0.0
 20
0.0
 30
0.0
  0
INSERT
  5
119
330
1F
100
AcDbEntity
  8
DIMLAY
100
AcDbBlockReference
  2
block 27
 10
0.0
 20
0.0
 30
0.0
  0
INSERT
  5
171
330
1F
100
AcDbEntity
  8
DIMLAY
100
AcDbBlockReference
  2
block 38
 10
0.0
 20
0.0
 30
0.0
  0
INSERT
  5
1C8
330
1F
100
AcDbEntity
  8
DIMLAY
100
AcDbBlockReference
  2
block 49
 10
0.0
 20
0.0
 30
0.0
  0
INSERT
  5
1D0
330
1F
100
AcDbEntity
  8
DIMLAY
100
AcDbBlockReference
  2
block 50
 10
0.0
 20
0.0
 30
0.0
  0
INSERT
  5
1D5
330
1F
100
AcDbEntity
  8
DIMLAY
100
AcDbBlockReference
  2
block 51
 10
0.0
 20
0.0
 30
0.0
  0
INSERT
  5
1DA
330
1F
100
AcDbEntity
  8
DIMLAY
100
AcDbBlockReference
  2
block 52
 10
0.0
 20
0.0
 30
0.0
  0
INSERT
  5
1E2
330
1F
100
AcDbEntity
  8
DIMLAY
100
AcDbBlockReference
  2
block 53
 10
0.0
 20
0.0
 30
0.0
  0
INSERT
  5
1E7
330
1F
100
AcDbEntity
  8
DIMLAY
100
AcDbBlockReference
  2
block 54
 10
0.0
 20
0.0
 30
0.0
  0
INSERT
  5
1EF
330
1F
100
AcDbEntity
  8
DIMLAY
100
AcDbBlockReference
  2
block 55
 10
0.0
 20
0.0
 30
0.0
  0
INSERT
  5
1F7
330
1F
100
AcDbEntity
  8
DIMLAY
100
AcDbBlockReference
  2
block 56
 10
0.0
 20
0.0
 30
0.0
  0
INSERT
  5
1FF
330
1F
100
AcDbEntity
  8
DIMLAY
100
AcDbBlockReference
  2
block 57
 10
0.0
 20
0.0
 30
0.0
  0
INSERT
  5
207
330
1F
100
AcDbEntity
  8
DIMLAY
100
AcDbBlockReference
  2
block 58
 10
0.0
 20
0.0
 30
0.0
  0
INSERT
  5
20F
330
1F
100
AcDbEntity
  8
DIMLAY
100
AcDbBlockReference
  2
block 59
 10
0.0
 20
0.0
 30
0.0
  0
INSERT
  5
217
330
1F
100
AcDbEntity
  8
DIMLAY
100
AcDbBlockReference
  2
block 60
 10
0.0
 20
0.0
 30
0.0
  0
INSERT
  5
21C
330
1F
100
AcDbEntity
  8
DIMLAY
100
AcDbBlockReference
  2
block 61
 10
0.0
 20
0.0
 30
0.0
  0
INSERT
  5
221
330
1F
100
AcDbEntity
  8
DIMLAY
100
AcDbBlockReference
  2
block 62
 10
0.0
 20
0.0
 30
0.0
  0
INSERT
  5
226
330
1F
100
AcDbEntity
  8
DIMLAY
100
AcDbBlockReference
  2
block 63
 10
0.0
 20
0.0
 30
0.0
  0
INSERT
  5
22C
330
1F
100
AcDbEntity
  8
PART
100
AcDbBlockReference
  2
block 64
 10
0.0
 20
0.0
 30
0.0
  0
INSERT
  5
231
330
1F
100
AcDbEntity
  8
PART
100
AcDbBlockReference
  2
block 65
 10
0.0
 20
0.0
 30
0.0
  0
INSERT
  5
236
330
1F
100
AcDbEntity
  8
PART
100
AcDbBlockReference
  2
block 66
 10
0.0
 20
0.0
 30
0.0
  0
INSERT
  5
23B
330
1F
100
AcDbEntity
  8
PART
100
AcDbBlockReference
  2
block 67
 10
0.0
 20
0.0
 30
0.0
  0
INSERT
  5
240
330
1F
100
AcDbEntity
  8
PART
100
AcDbBlockReference
  2
block 68
 10
0.0
 20
0.0
 30
0.0
  0
INSERT
  5
245
330
1F
100
AcDbEntity
  8
PART
100
AcDbBlockReference
  2
block 69
 10
0.0
 20
0.0
 30
0.0
  0
INSERT
  5
24A
330
1F
100
AcDbEntity
  8
PART
100
AcDbBlockReference
  2
block 70
 10
0.0
 20
0.0
 30
0.0
  0
INSERT
  5
252
330
1F
100
AcDbEntity
  8
PART
100
AcDbBlockReference
  2
block 71
 10
0.0
 20
0.0
 30
0.0
  0
INSERT
  5
257
330
1F
100
AcDbEntity
  8
PART
100
AcDbBlockReference
  2
block 72
 10
0.0
 20
0.0
 30
0.0
  0
INSERT
  5
25C
330
1F
100
AcDbEntity
  8
PART
100
AcDbBlockReference
  2
block 73
 10
0.0
 20
0.0
 30
0.0
  0
INSERT
  5
266
330
1F
100
AcDbEntity
  8
PART
100
AcDbBlockReference
  2
block 74
 10
0.0
 20
0.0
 30
0.0
  0
INSERT
  5
26B
330
1F
100
AcDbEntity
  8
PART
100
AcDbBlockReference
  2
block 75
 10
0.0
 20
0.0
 30
0.0
  0
INSERT
  5
273
330
1F
100
AcDbEntity
  8
PART
100
AcDbBlockReference
  2
block 76
 10
0.0
 20
0.0
 30
0.0
  0
INSERT
  5
278
330
1F
100
AcDbEntity
  8
PART
100
AcDbBlockReference
  2
block 77
 10
0.0
 20
0.0
 30
0.0
  0
INSERT
  5
27D
330
1F
100
AcDbEntity
  8
PART
100
AcDbBlockReference
  2
block 78
 10
0.0
 20
0.0
 30
0.0
  0
INSERT
  5
285
330
1F
100
AcDbEntity
  8
PART
100
AcDbBlockReference
  2
block 79
 10
0.0
 20
0.0
 30
0.0
  0
INSERT
  5
28A
330
1F
100
AcDbEntity
  8
PART
100
AcDbBlockReference
  2
block 80
 10
0.0
 20
0.0
 30
0.0
  0
INSERT
  5
28F
330
1F
100
AcDbEntity
  8
PART
100
AcDbBlockReference
  2
block 81
 10
0.0
 20
0.0
 30
0.0
  0
INSERT
  5
294
330
1F
100
AcDbEntity
  8
PART
100
AcDbBlockReference
  2
block 82
 10
0.0
 20
0.0
 30
0.0
  0
INSERT
  5
299
330
1F
100
AcDbEntity
  8
PART
100
AcDbBlockReference
  2
block 83
 10
0.0
 20
0.0
 30
0.0
  0
INSERT
  5
2A1
330
1F
100
AcDbEntity
  8
PART
100
AcDbBlockReference
  2
block 84
 10
0.0
 20
0.0
 30
0.0
  0
INSERT
  5
2A6
330
1F
100
AcDbEntity
  8
PART
100
AcDbBlockReference
  2
block 85
 10
0.0
 20
0.0
 30
0.0
  0
INSERT
  5
2AB
330
1F
100
AcDbEntity
  8
PART
100
AcDbBlockReference
  2
block 86
 10
0.0
 20
0.0
 30
0.0
  0
INSERT
  5
2B0
330
1F
100
AcDbEntity
  8
PART
100
AcDbBlockReference
  2
block 87
 10
0.0
 20
0.0
 30
0.0
  0
INSERT
  5
2B5
330
1F
100
AcDbEntity
  8
PART
100
AcDbBlockReference
  2
block 88
 10
0.0
 20
0.0
 30
0.0
  0
INSERT
  5
2BA
330
1F
100
AcDbEntity
  8
PART
100
AcDbBlockReference
  2
block 89
 10
0.0
 20
0.0
 30
0.0
  0
INSERT
  5
2C2
330
1F
100
AcDbEntity
  8
PART
100
AcDbBlockReference
  2
block 90
 10
0.0
 20
0.0
 30
0.0
  0
INSERT
  5
2C7
330
1F
100
AcDbEntity
  8
PART
100
AcDbBlockReference
  2
block 91
 10
0.0
 20
0.0
 30
0.0
  0
ENDSEC
  0
SECTION
  2
OBJECTS
  0
DICTIONARY
  5
C
330
0
100
AcDbDictionary
281
     1
  3
ACAD_GROUP
350
D
  3
ACAD_LAYOUT
350
1A
  3
ACAD_MLINESTYLE
350
17
  3
ACAD_PLOTSETTINGS
350
19
  3
ACAD_PLOTSTYLENAME
350
E
  3
ACAD_TABLESTYLE
350
2CB
  3
ACAD_VISUALSTYLE
350
2A
  0
DICTIONARY
  5
D
102
{ACAD_REACTORS
330
C
102
}
330
C
100
AcDbDictionary
281
     1
  0
DICTIONARY
  5
1A
102
{ACAD_REACTORS
330
C
102
}
330
C
100
AcDbDictionary
281
     1
  3
Layout1
350
1E
  3
Layout2
350
26
  3
Model
350
22
  0
DICTIONARY
  5
17
102
{ACAD_REACTORS
330
C
102
}
330
C
100
AcDbDictionary
281
     1
  3
Standard
350
18
  0
DICTIONARY
  5
19
102
{ACAD_REACTORS
330
C
102
}
330
C
100
AcDbDictionary
281
     1
  0
ACDBDICTIONARYWDFLT
  5
E
102
{ACAD_REACTORS
330
C
102
}
330
C
100
AcDbDictionary
281
     1
  3
Normal
350
F
100
AcDbDictionaryWithDefault
340
F
  0
DICTIONARY
  5
2CB
102
{ACAD_REACTORS
330
C
102
}
330
C
100
AcDbDictionary
281
     1
  0
DICTIONARY
  5
2A
102
{ACAD_REACTORS
330
C
102
}
330
C
100
AcDbDictionary
281
     1
  3
2dWireframe
350
2F
  3
3D Hidden
350
31
  3
3dWireframe
350
30
  3
Basic
350
32
  3
Brighten
350
36
  3
ColorChange
350
3A
  3
Conceptual
350
34
  3
Dim
350
35
  3
Facepattern
350
39
  3
Flat
350
2B
  3
FlatWithEdges
350
2C
  3
Gouraud
350
2D
  3
GouraudWithEdges
350
2E
  3
Linepattern
350
38
  3
Realistic
350
33
  3
Thicken
350
37
  0
LAYOUT
  5
1E
102
{ACAD_REACTORS
330
1A
102
}
330
1A
100
AcDbPlotSettings
  1

  2
none_device
  4

  6

 40
0.0
 41
0.0
 42
0.0
 43
0.0
 44
0.0
 45
0.0
 46
0.0
 47
0.0
 48
0.0
 49
0.0
140
0.0
141
0.0
142
1.0
143
1.0
 70
   688
 72
     0
 73
     0
 74
     5
  7

 75
    16
 76
     0
 77
     2
 78
   300
147
1.0
148
0.0
149
0.0
100
AcDbLayout
  1
Layout1
 70
     1
 71
     1
 10
0.0
 20
0.0
 11
12.0
 21
9.0
 12
0.0
 22
0.0
 32
0.0
 14
1.000000000000000E+20
 24
1.000000000000000E+20
 34
1.000000000000000E+20
 15
-1.000000000000000E+20
 25
-1.000000000000000E+20
 35
-1.000000000000000E+20
146
0.0
 13
0.0
 23
0.0
 33
0.0
 16
1.0
 26
0.0
 36
0.0
 17
0.0
 27
1.0
 37
0.0
 76
     0
330
1B
  0
LAYOUT
  5
26
102
{ACAD_REACTORS
330
1A
102
}
330
1A
100
AcDbPlotSettings
  1

  2
none_device
  4

  6

 40
0.0
 41
0.0
 42
0.0
 43
0.0
 44
0.0
 45
0.0
 46
0.0
 47
0.0
 48
0.0
 49
0.0
140
0.0
141
0.0
142
1.0
143
1.0
 70
   688
 72
     0
 73
     0
 74
     5
  7

 75
    16
 76
     0
 77
     2
 78
   300
147
1.0
148
0.0
149
0.0
100
AcDbLayout
  1
Layout2
 70
     1
 71
     2
 10
0.0
 20
0.0
 11
0.0
 21
0.0
 12
0.0
 22
0.0
 32
0.0
 14
0.0
 24
0.0
 34
0.0
 15
0.0
 25
0.0
 35
0.0
146
0.0
 13
0.0
 23
0.0
 33
0.0
 16
1.0
 26
0.0
 36
0.0
 17
0.0
 27
1.0
 37
0.0
 76
     0
330
23
  0
LAYOUT
  5
22
102
{ACAD_REACTORS
330
1A
102
}
330
1A
100
AcDbPlotSettings
  1

  2
none_device
  4

  6

 40
0.0
 41
0.0
 42
0.0
 43
0.0
 44
0.0
 45
0.0
 46
0.0
 47
0.0
 48
0.0
 49
0.0
140
0.0
141
0.0
142
1.0
143
1.0
 70
  1712
 72
     0
 73
     0
 74
     0
  7

 75
     0
 76
     0
 77
     2
 78
   300
147
1.0
148
0.0
149
0.0
100
AcDbLayout
  1
Model
 70
     1
 71
     0
 10
0.0
 20
0.0
 11
12.0
 21
9.0
 12
0.0
 22
0.0
 32
0.0
 14
1.000000000000000E+20
 24
1.000000000000000E+20
 34
1.000000000000000E+20
 15
-1.000000000000000E+20
 25
-1.000000000000000E+20
 35
-1.000000000000000E+20
146
0.0
 13
0.0
 23
0.0
 33
0.0
 16
1.0
 26
0.0
 36
0.0
 17
0.0
 27
1.0
 37
0.0
 76
     0
330
1F
331
29
  0
MLINESTYLE
  5
18
102
{ACAD_REACTORS
330
17
102
}
330
17
100
AcDbMlineStyle
  2
Standard
 70
     0
  3

 62
   256
 51
90.0
 52
90.0
 71
     2
 49
0.5
 62
   256
  6
BYLAYER
 49
-0.5
 62
   256
  6
BYLAYER
  0
ACDBPLACEHOLDER
  5
F
102
{ACAD_REACTORS
330
E
102
}
330
E
  0
VISUALSTYLE
  5
2F
102
{ACAD_REACTORS
330
2A
102
}
330
2A
100
AcDbVisualStyle
  2
2dWireframe
 70
     4
 71
     0
 72
     2
 73
     0
 90
        0
 40
-0.6
 41
-30.0
 62
     5
 63
     7
421
 16777215
 74
     1
 91
        4
 64
     7
 65
   257
 75
     1
175
     1
 42
1.0
 92
        0
 66
   257
 43
1.0
 76
     1
 77
     6
 78
     2
 67
     7
 79
     5
170
     0
171
     0
290
     0
174
     0
 93
        1
 44
0.0
173
     0
291
     0
 45
0.0
1001
ACAD
1000
AcDbSavedByObjectVersion
1070
     0
  0
VISUALSTYLE
  5
31
102
{ACAD_REACTORS
330
2A
102
}
330
2A
100
AcDbVisualStyle
  2
3D Hidden
 70
     6
 71
     1
 72
     2
 73
     2
 90
        0
 40
-0.6
 41
-30.0
 62
     5
 63
     7
421
 16777215
 74
     2
 91
        2
 64
     7
 65
   257
 75
     2
175
     1
 42
40.0
 92
        0
 66
   257
 43
1.0
 76
     1
 77
     6
 78
     2
 67
     7
 79
     3
170
     0
171
     0
290
     0
174
     0
 93
        1
 44
0.0
173
     0
291
     0
 45
0.0
1001
ACAD
1000
AcDbSavedByObjectVersion
1070
     0
  0
VISUALSTYLE
  5
30
102
{ACAD_REACTORS
330
2A
102
}
330
2A
100
AcDbVisualStyle
  2
3dWireframe
 70
     5
 71
     0
 72
     2
 73
     0
 90
        0
 40
-0.6
 41
-30.0
 62
     5
 63
     7
421
 16777215
 74
     1
 91
        4
 64
     7
 65
   257
 75
     1
175
     1
 42
1.0
 92
        0
 66
   257
 43
1.0
 76
     1
 77
     6
 78
     2
 67
     7
 79
     5
170
     0
171
     0
290
     0
174
     0
 93
        1
 44
0.0
173
     0
291
     0
 45
0.0
1001
ACAD
1000
AcDbSavedByObjectVersion
1070
     0
  0
VISUALSTYLE
  5
32
102
{ACAD_REACTORS
330
2A
102
}
330
2A
100
AcDbVisualStyle
  2
Basic
 70
     7
 71
     1
 72
     0
 73
     1
 90
        0
 40
-0.6
 41
-30.0
 62
     5
 63
     7
421
 16777215
 74
     0
 91
        4
 64
     7
 65
   257
 75
     1
175
     1
 42
1.0
 92
        8
 66
     7
 43
1.0
 76
     1
 77
     6
 78
     2
 67
     7
 79
     5
170
     0
171
     0
290
     0
174
     0
 93
        1
 44
0.0
173
     0
291
     1
 45
0.0
1001
ACAD
1000
AcDbSavedByObjectVersion
1070
     0
  0
VISUALSTYLE
  5
36
102
{ACAD_REACTORS
330
2A
102
}
330
2A
100
AcDbVisualStyle
  2
Brighten
 70
    12
 71
     2
 72
     2
 73
     0
 90
        0
 40
-0.6
 41
-30.0
 62
     5
 63
     7
421
 16777215
 74
     1
 91
        4
 64
     7
 65
   257
 75
     1
175
     1
 42
1.0
 92
        8
 66
     7
 43
1.0
 76
     1
 77
     6
 78
     2
 67
     7
 79
     5
170
     0
171
     0
290
     0
174
     0
 93
        1
 44
50.0
173
     0
291
     1
 45
0.0
1001
ACAD
1000
AcDbSavedByObjectVersion
1070
     0
  0
VISUALSTYLE
  5
3A
102
{ACAD_REACTORS
330
2A
102
}
330
2A
100
AcDbVisualStyle
  2
ColorChange
 70
    16
 71
     2
 72
     2
 73
     3
 90
        0
 40
-0.6
 41
-30.0
 62
     5
 63
     8
421
  8421504
 74
     1
 91
        4
 64
     7
 65
   257
 75
     1
175
     1
 42
1.0
 92
        8
 66
     8
424
  8421504
 43
1.0
 76
     1
 77
     6
 78
     2
 67
     7
 79
     5
170
     0
171
     0
290
     0
174
     0
 93
        1
 44
0.0
173
     0
291
     1
 45
0.0
1001
ACAD
1000
AcDbSavedByObjectVersion
1070
     0
  0
VISUALSTYLE
  5
34
102
{ACAD_REACTORS
330
2A
102
}
330
2A
100
AcDbVisualStyle
  2
Conceptual
 70
     9
 71
     3
 72
     2
 73
     0
 90
        0
 40
-0.6
 41
-30.0
 62
     5
 63
     7
421
 16777215
 74
     2
 91
        2
 64
     7
 65
   257
 75
     1
175
     1
 42
40.0
 92
        8
 66
     7
 43
1.0
 76
     1
 77
     6
 78
     2
 67
     7
 79
     3
170
     0
171
     0
290
     0
174
     0
 93
        1
 44
0.0
173
     0
291
     0
 45
0.0
1001
ACAD
1000
AcDbSavedByObjectVersion
1070
     0
  0
VISUALSTYLE
  5
35
102
{ACAD_REACTORS
330
2A
102
}
330
2A
100
AcDbVisualStyle
  2
Dim
 70
    11
 71
     2
 72
     2
 73
     0
 90
        0
 40
-0.6
 41
-30.0
 62
     5
 63
     7
421
 16777215
 74
     1
 91
        4
 64
     7
 65
   257
 75
     1
175
     1
 42
1.0
 92
        8
 66
     7
 43
1.0
 76
     1
 77
     6
 78
     2
 67
     7
 79
     5
170
     0
171
     0
290
     0
174
     0
 93
        1
 44
-50.0
173
     0
291
     1
 45
0.0
1001
ACAD
1000
AcDbSavedByObjectVersion
1070
     0
  0
VISUALSTYLE
  5
39
102
{ACAD_REACTORS
330
2A
102
}
330
2A
100
AcDbVisualStyle
  2
Facepattern
 70
    15
 71
     2
 72
     2
 73
     0
 90
        0
 40
-0.6
 41
-30.0
 62
     5
 63
     7
421
 16777215
 74
     1
 91
        4
 64
     7
 65
   257
 75
     1
175
     1
 42
1.0
 92
        8
 66
     7
 43
1.0
 76
     1
 77
     6
 78
     2
 67
     7
 79
     5
170
     0
171
     0
290
     0
174
     0
 93
        1
 44
0.0
173
     0
291
     1
 45
0.0
1001
ACAD
1000
AcDbSavedByObjectVersion
1070
     0
  0
VISUALSTYLE
  5
2B
102
{ACAD_REACTORS
330
2A
102
}
330
2A
100
AcDbVisualStyle
  2
Flat
 70
     0
 71
     2
 72
     1
 73
     1
 90
        2
 40
-0.6
 41
30.0
 62
     5
 63
     7
421
 16777215
 74
     0
 91
        4
 64
     7
 65
   257
 75
     1
175
     1
 42
1.0
 92
        8
 66
     7
 43
1.0
 76
     1
 77
     6
 78
     2
 67
     7
 79
     5
170
     0
171
     0
290
     0
174
     0
 93
       13
 44
0.0
173
     0
291
     1
 45
0.0
1001
ACAD
1000
AcDbSavedByObjectVersion
1070
     0
  0
VISUALSTYLE
  5
2C
102
{ACAD_REACTORS
330
2A
102
}
330
2A
100
AcDbVisualStyle
  2
FlatWithEdges
 70
     1
 71
     2
 72
     1
 73
     1
 90
        2
 40
-0.6
 41
30.0
 62
     5
 63
     7
421
 16777215
 74
     1
 91
        4
 64
     7
 65
   257
 75
     1
175
     1
 42
1.0
 92
        0
 66
   257
 43
1.0
 76
     1
 77
     6
 78
     2
 67
     7
 79
     5
170
     0
171
     0
290
     0
174
     0
 93
       13
 44
0.0
173
     0
291
     1
 45
0.0
1001
ACAD
1000
AcDbSavedByObjectVersion
1070
     0
  0
VISUALSTYLE
  5
2D
102
{ACAD_REACTORS
330
2A
102
}
330
2A
100
AcDbVisualStyle
  2
Gouraud
 70
     2
 71
     2
 72
     2
 73
     1
 90
        2
 40
-0.6
 41
30.0
 62
     5
 63
     7
421
 16777215
 74
     0
 91
        4
 64
     7
 65
   257
 75
     1
175
     1
 42
1.0
 92
        0
 66
     7
 43
1.0
 76
     1
 77
     6
 78
     2
 67
     7
 79
     5
170
     0
171
     0
290
     0
174
     0
 93
       13
 44
0.0
173
     0
291
     1
 45
0.0
1001
ACAD
1000
AcDbSavedByObjectVersion
1070
     0
  0
VISUALSTYLE
  5
2E
102
{ACAD_REACTORS
330
2A
102
}
330
2A
100
AcDbVisualStyle
  2
GouraudWithEdges
 70
     3
 71
     2
 72
     2
 73
     1
 90
        2
 40
-0.6
 41
30.0
 62
     5
 63
     7
421
 16777215
 74
     1
 91
        4
 64
     7
 65
   257
 75
     1
175
     1
 42
1.0
 92
        0
 66
   257
 43
1.0
 76
     1
 77
     6
 78
     2
 67
     7
 79
     5
170
     0
171
     0
290
     0
174
     0
 93
       13
 44
0.0
173
     0
291
     1
 45
0.0
1001
ACAD
1000
AcDbSavedByObjectVersion
1070
     0
  0
VISUALSTYLE
  5
38
102
{ACAD_REACTORS
330
2A
102
}
330
2A
100
AcDbVisualStyle
  2
Linepattern
 70
    14
 71
     2
 72
     2
 73
     0
 90
        0
 40
-0.6
 41
-30.0
 62
     5
 63
     7
421
 16777215
 74
     1
 91
        4
 64
     7
 65
   257
 75
     7
175
     7
 42
1.0
 92
        8
 66
     7
 43
1.0
 76
     1
 77
     6
 78
     2
 67
     7
 79
     5
170
     0
171
     0
290
     0
174
     0
 93
        1
 44
0.0
173
     0
291
     1
 45
0.0
1001
ACAD
1000
AcDbSavedByObjectVersion
1070
     0
  0
VISUALSTYLE
  5
33
102
{ACAD_REACTORS
330
2A
102
}
330
2A
100
AcDbVisualStyle
  2
Realistic
 70
     8
 71
     2
 72
     2
 73
     0
 90
        0
 40
-0.6
 41
-30.0
 62
     5
 63
     7
421
 16777215
 74
     1
 91
        0
 64
     7
 65
   257
 75
     1
175
     1
 42
1.0
 92
        8
 66
     8
424
  7895160
 43
1.0
 76
     1
 77
     6
 78
     2
 67
     7
 79
     5
170
     0
171
     0
290
     0
174
     0
 93
       13
 44
0.0
173
     0
291
     0
 45
0.0
1001
ACAD
1000
AcDbSavedByObjectVersion
1070
     0
  0
VISUALSTYLE
  5
37
102
{ACAD_REACTORS
330
2A
102
}
330
2A
100
AcDbVisualStyle
  2
Thicken
 70
    13
 71
     2
 72
     2
 73
     0
 90
        0
 40
-0.6
 41
-30.0
 62
     5
 63
     7
421
 16777215
 74
     1
 91
        4
 64
     7
 65
   257
 75
     1
175
     1
 42
1.0
 92
       12
 66
     7
 43
1.0
 76
     1
 77
     6
 78
     2
 67
     7
 79
     5
170
     0
171
     0
290
     0
174
     0
 93
        1
 44
0.0
173
     0
291
     1
 45
0.0
1001
ACAD
1000
AcDbSavedByObjectVersion
1070
     0
  0
ENDSEC
  0
EOF
