  0
SECTION
  2
HEADER
  9
$ACADVER
  1
AC1018
  9
$ACADMAINTVER
 70
     0
  9
$DWGCODEPAGE
  3
ANSI_932
  9
$INSBASE
 10
0.0
 20
0.0
 30
0.0
  9
$EXTMIN
 10
1.000000000000000E+20
 20
1.000000000000000E+20
 30
1.000000000000000E+20
  9
$EXTMAX
 10
-1.000000000000000E+20
 20
-1.000000000000000E+20
 30
-1.000000000000000E+20
  9
$LIMMIN
 10
0.0
 20
0.0
  9
$LIMMAX
 10
12.0
 20
9.0
  9
$ORTHOMODE
 70
     0
  9
$REGENMODE
 70
     1
  9
$FILLMODE
 70
     1
  9
$QTEXTMODE
 70
     0
  9
$MIRRTEXT
 70
     1
  9
$LTSCALE
 40
1.0
  9
$ATTMODE
 70
     1
  9
$TEXTSIZE
 40
0.2
  9
$TRACEWID
 40
0.05
  9
$TEXTSTYLE
  7
Standard
  9
$CLAYER
  8
0
  9
$CELTYPE
  6
ByLayer
  9
$CECOLOR
 62
   256
  9
$CELTSCALE
 40
1.0
  9
$DISPSILH
 70
     0
  9
$DIMSCALE
 40
1.0
  9
$DIMASZ
 40
0.18
  9
$DIMEXO
 40
0.0625
  9
$DIMDLI
 40
0.38
  9
$DIMRND
 40
0.0
  9
$DIMDLE
 40
0.0
  9
$DIMEXE
 40
0.18
  9
$DIMTP
 40
0.0
  9
$DIMTM
 40
0.0
  9
$DIMTXT
 40
0.18
  9
$DIMCEN
 40
0.09
  9
$DIMTSZ
 40
0.0
  9
$DIMTOL
 70
     0
  9
$DIMLIM
 70
     0
  9
$DIMTIH
 70
     1
  9
$DIMTOH
 70
     1
  9
$DIMSE1
 70
     0
  9
$DIMSE2
 70
     0
  9
$DIMTAD
 70
     0
  9
$DIMZIN
 70
     0
  9
$DIMBLK
  1

  9
$DIMASO
 70
     1
  9
$DIMSHO
 70
     1
  9
$DIMPOST
  1

  9
$DIMAPOST
  1

  9
$DIMALT
 70
     0
  9
$DIMALTD
 70
     2
  9
$DIMALTF
 40
25.4
  9
$DIMLFAC
 40
1.0
  9
$DIMTOFL
 70
     0
  9
$DIMTVP
 40
0.0
  9
$DIMTIX
 70
     0
  9
$DIMSOXD
 70
     0
  9
$DIMSAH
 70
     0
  9
$DIMBLK1
  1

  9
$DIMBLK2
  1

  9
$DIMSTYLE
  2
Standard
  9
$DIMCLRD
 70
     0
  9
$DIMCLRE
 70
     0
  9
$DIMCLRT
 70
     0
  9
$DIMTFAC
 40
1.0
  9
$DIMGAP
 40
0.09
  9
$DIMJUST
 70
     0
  9
$DIMSD1
 70
     0
  9
$DIMSD2
 70
     0
  9
$DIMTOLJ
 70
     1
  9
$DIMTZIN
 70
     0
  9
$DIMALTZ
 70
     0
  9
$DIMALTTZ
 70
     0
  9
$DIMUPT
 70
     0
  9
$DIMDEC
 70
     4
  9
$DIMTDEC
 70
     4
  9
$DIMALTU
 70
     2
  9
$DIMALTTD
 70
     2
  9
$DIMTXSTY
  7
Standard
  9
$DIMAUNIT
 70
     0
  9
$DIMADEC
 70
     0
  9
$DIMALTRND
 40
0.0
  9
$DIMAZIN
 70
     0
  9
$DIMDSEP
 70
    46
  9
$DIMATFIT
 70
     3
  9
$DIMFRAC
 70
     0
  9
$DIMLDRBLK
  1

  9
$DIMLUNIT
 70
     2
  9
$DIMLWD
 70
    -2
  9
$DIMLWE
 70
    -2
  9
$DIMTMOVE
 70
     0
  9
$LUNITS
 70
     2
  9
$LUPREC
 70
     4
  9
$SKETCHINC
 40
0.1
  9
$FILLETRAD
 40
0.5
  9
$AUNITS
 70
     0
  9
$AUPREC
 70
     0
  9
$MENU
  1
.
  9
$ELEVATION
 40
0.0
  9
$PELEVATION
 40
0.0
  9
$THICKNESS
 40
0.0
  9
$LIMCHECK
 70
     0
  9
$CHAMFERA
 40
0.5
  9
$CHAMFERB
 40
0.5
  9
$CHAMFERC
 40
1.0
  9
$CHAMFERD
 40
0.0
  9
$SKPOLY
 70
     0
  9
$TDCREATE
 40
2456853.642453704
  9
$TDUCREATE
 40
2456853.975787037
  9
$TDUPDATE
 40
2456853.642453715
  9
$TDUUPDATE
 40
2456853.975787049
  9
$TDINDWG
 40
0.0000000116
  9
$TDUSRTIMER
 40
0.0000000116
  9
$USRTIMER
 70
     1
  9
$ANGBASE
 50
0.0
  9
$ANGDIR
 70
     0
  9
$PDMODE
 70
     0
  9
$PDSIZE
 40
0.0
  9
$PLINEWID
 40
0.0
  9
$SPLFRAME
 70
     0
  9
$SPLINETYPE
 70
     6
  9
$SPLINESEGS
 70
     8
  9
$HANDSEED
  5
380
  9
$SURFTAB1
 70
     6
  9
$SURFTAB2
 70
     6
  9
$SURFTYPE
 70
     6
  9
$SURFU
 70
     6
  9
$SURFV
 70
     6
  9
$UCSBASE
  2

  9
$UCSNAME
  2

  9
$UCSORG
 10
0.0
 20
0.0
 30
0.0
  9
$UCSXDIR
 10
1.0
 20
0.0
 30
0.0
  9
$UCSYDIR
 10
0.0
 20
1.0
 30
0.0
  9
$UCSORTHOREF
  2

  9
$UCSORTHOVIEW
 70
     0
  9
$UCSORGTOP
 10
0.0
 20
0.0
 30
0.0
  9
$UCSORGBOTTOM
 10
0.0
 20
0.0
 30
0.0
  9
$UCSORGLEFT
 10
0.0
 20
0.0
 30
0.0
  9
$UCSORGRIGHT
 10
0.0
 20
0.0
 30
0.0
  9
$UCSORGFRONT
 10
0.0
 20
0.0
 30
0.0
  9
$UCSORGBACK
 10
0.0
 20
0.0
 30
0.0
  9
$PUCSBASE
  2

  9
$PUCSNAME
  2

  9
$PUCSORG
 10
0.0
 20
0.0
 30
0.0
  9
$PUCSXDIR
 10
1.0
 20
0.0
 30
0.0
  9
$PUCSYDIR
 10
0.0
 20
1.0
 30
0.0
  9
$PUCSORTHOREF
  2

  9
$PUCSORTHOVIEW
 70
     0
  9
$PUCSORGTOP
 10
0.0
 20
0.0
 30
0.0
  9
$PUCSORGBOTTOM
 10
0.0
 20
0.0
 30
0.0
  9
$PUCSORGLEFT
 10
0.0
 20
0.0
 30
0.0
  9
$PUCSORGRIGHT
 10
0.0
 20
0.0
 30
0.0
  9
$PUCSORGFRONT
 10
0.0
 20
0.0
 30
0.0
  9
$PUCSORGBACK
 10
0.0
 20
0.0
 30
0.0
  9
$USERI1
 70
     0
  9
$USERI2
 70
     0
  9
$USERI3
 70
     0
  9
$USERI4
 70
     0
  9
$USERI5
 70
     0
  9
$USERR1
 40
0.0
  9
$USERR2
 40
0.0
  9
$USERR3
 40
0.0
  9
$USERR4
 40
0.0
  9
$USERR5
 40
0.0
  9
$WORLDVIEW
 70
     1
  9
$SHADEDGE
 70
     3
  9
$SHADEDIF
 70
    70
  9
$TILEMODE
 70
     1
  9
$MAXACTVP
 70
    64
  9
$PINSBASE
 10
0.0
 20
0.0
 30
0.0
  9
$PLIMCHECK
 70
     0
  9
$PEXTMIN
 10
1.000000000000000E+20
 20
1.000000000000000E+20
 30
1.000000000000000E+20
  9
$PEXTMAX
 10
-1.000000000000000E+20
 20
-1.000000000000000E+20
 30
-1.000000000000000E+20
  9
$PLIMMIN
 10
0.0
 20
0.0
  9
$PLIMMAX
 10
12.0
 20
9.0
  9
$UNITMODE
 70
     0
  9
$VISRETAIN
 70
     1
  9
$PLINEGEN
 70
     0
  9
$PSLTSCALE
 70
     1
  9
$TREEDEPTH
 70
  3020
  9
$CMLSTYLE
  2
Standard
  9
$CMLJUST
 70
     0
  9
$CMLSCALE
 40
1.0
  9
$PROXYGRAPHICS
 70
     1
  9
$MEASUREMENT
 70
     0
  9
$CELWEIGHT
370
    -1
  9
$ENDCAPS
280
     0
  9
$JOINSTYLE
280
     0
  9
$LWDISPLAY
290
     1
  9
$INSUNITS
 70
     1
  9
$HYPERLINKBASE
  1

  9
$STYLESHEET
  1

  9
$XEDIT
290
     1
  9
$CEPSNTYPE
380
     0
  9
$PSTYLEMODE
290
     1
  9
$FINGERPRINTGUID
  2
{3AC173BF-C74B-4147-9989-EA9EA1C5D10C}
  9
$VERSIONGUID
  2
{FAEB1C32-E019-11D5-929B-00C0DF256EC4}
  9
$EXTNAMES
290
     1
  9
$PSVPSCALE
 40
0.0
  9
$OLESTARTUP
290
     0
  9
$SORTENTS
280
   127
  9
$INDEXCTL
280
     0
  9
$HIDETEXT
280
     1
  9
$XCLIPFRAME
290
     0
  9
$HALOGAP
280
     0
  9
$OBSCOLOR
 70
   257
  9
$OBSLTYPE
280
     0
  9
$INTERSECTIONDISPLAY
280
     0
  9
$INTERSECTIONCOLOR
 70
   257
  9
$DIMASSOC
280
     2
  9
$PROJECTNAME
  1

  0
ENDSEC
  0
SECTION
  2
CLASSES
  0
CLASS
  1
ACDBDICTIONARYWDFLT
  2
AcDbDictionaryWithDefault
  3
ObjectDBX Classes
 90
        0
 91
        3
280
     0
281
     0
  0
CLASS
  1
VISUALSTYLE
  2
AcDbVisualStyle
  3
ObjectDBX Classes
 90
     4095
 91
        3
280
     0
281
     0
  0
ENDSEC
  0
SECTION
  2
TABLES
  0
TABLE
  2
VPORT
  5
8
330
0
100
AcDbSymbolTable
 70
     1
  0
VPORT
  5
29
330
8
100
AcDbSymbolTableRecord
100
AcDbViewportTableRecord
  2
*Active
 70
     0
 10
0.0
 20
0.0
 11
1.0
 21
1.0
 12
0.0
 22
0.0
 13
0.0
 23
0.0
 14
0.5
 24
0.5
 15
0.5
 25
0.5
 16
0.0
 26
0.0
 36
1.0
 17
9.0
 27
9.0
 37
0.0
 40
18.0
 41
1.0
 42
50.0
 43
0.0
 44
0.0
 50
0.0
 51
0.0
 71
     0
 72
   100
 73
     1
 74
     3
 75
     0
 76
     0
 77
     0
 78
     0
281
     0
 65
     1
110
0.0
120
0.0
130
0.0
111
1.0
121
0.0
131
0.0
112
0.0
122
1.0
132
0.0
 79
     0
146
0.0
  0
ENDTAB
  0
TABLE
  2
LTYPE
  5
5
330
0
100
AcDbSymbolTable
 70
     1
  0
LTYPE
  5
14
330
5
100
AcDbSymbolTableRecord
100
AcDbLinetypeTableRecord
  2
ByBlock
 70
     0
  3

 72
    65
 73
     0
 40
0.0
  0
LTYPE
  5
15
330
5
100
AcDbSymbolTableRecord
100
AcDbLinetypeTableRecord
  2
ByLayer
 70
     0
  3

 72
    65
 73
     0
 40
0.0
  0
LTYPE
  5
16
330
5
100
AcDbSymbolTableRecord
100
AcDbLinetypeTableRecord
  2
Continuous
 70
     0
  3
Solid line
 72
    65
 73
     0
 40
0.0
  0
ENDTAB
  0
TABLE
  2
LAYER
  5
2
330
0
100
AcDbSymbolTable
 70
     4
  0
LAYER
  5
10
330
2
100
AcDbSymbolTableRecord
100
AcDbLayerTableRecord
  2
0
 70
     0
 62
     7
  6
Continuous
370
    -3
390
F
  0
LAYER
  5
3B
330
2
100
AcDbSymbolTableRecord
100
AcDbLayerTableRecord
  2
DIMLAY
 70
     0
 62
     7
  6
Continuous
370
    -3
390
F
  0
LAYER
  5
22D
330
2
100
AcDbSymbolTableRecord
100
AcDbLayerTableRecord
  2
PART
 70
     4
 62
     7
  6
Continuous
370
    -3
390
F
  0
LAYER
  5
306
330
2
100
AcDbSymbolTableRecord
100
AcDbLayerTableRecord
  2
SCREWS
 70
     4
 62
     7
  6
Continuous
370
    -3
390
F
  0
ENDTAB
  0
TABLE
  2
STYLE
  5
3
330
0
100
AcDbSymbolTable
 70
     1
  0
STYLE
  5
11
330
3
100
AcDbSymbolTableRecord
100
AcDbTextStyleTableRecord
  2
Standard
 70
     0
 40
0.0
 41
1.0
 50
0.0
 71
     0
 42
0.2
  3
txt
  4

  0
ENDTAB
  0
TABLE
  2
VIEW
  5
6
330
0
100
AcDbSymbolTable
 70
     0
  0
ENDTAB
  0
TABLE
  2
UCS
  5
7
330
0
100
AcDbSymbolTable
 70
     0
  0
ENDTAB
  0
TABLE
  2
APPID
  5
9
330
0
100
AcDbSymbolTable
 70
     1
  0
APPID
  5
12
330
9
100
AcDbSymbolTableRecord
100
AcDbRegAppTableRecord
  2
ACAD
 70
     0
  0
ENDTAB
  0
TABLE
  2
DIMSTYLE
  5
A
330
0
100
AcDbSymbolTable
 70
     1
100
AcDbDimStyleTable
  0
DIMSTYLE
105
27
330
A
100
AcDbSymbolTableRecord
100
AcDbDimStyleTableRecord
  2
Standard
 70
     0
340
11
  0
ENDTAB
  0
TABLE
  2
BLOCK_RECORD
  5
1
330
0
100
AcDbSymbolTable
 70
   114
  0
BLOCK_RECORD
  5
1F
330
1
100
AcDbSymbolTableRecord
100
AcDbBlockTableRecord
  2
*Model_Space
340
22
  0
BLOCK_RECORD
  5
1B
330
1
100
AcDbSymbolTableRecord
100
AcDbBlockTableRecord
  2
*Paper_Space
340
1E
  0
BLOCK_RECORD
  5
23
330
1
100
AcDbSymbolTableRecord
100
AcDbBlockTableRecord
  2
*Paper_Space0
340
26
  0
BLOCK_RECORD
  5
3C
330
1
100
AcDbSymbolTableRecord
100
AcDbBlockTableRecord
  2
block 2
340
0
102
{BLKREFS
331
3D
102
}
  0
BLOCK_RECORD
  5
40
330
1
100
AcDbSymbolTableRecord
100
AcDbBlockTableRecord
  2
block 3
340
0
102
{BLKREFS
331
41
102
}
  0
BLOCK_RECORD
  5
48
330
1
100
AcDbSymbolTableRecord
100
AcDbBlockTableRecord
  2
block 4
340
0
102
{BLKREFS
331
49
102
}
  0
BLOCK_RECORD
  5
50
330
1
100
AcDbSymbolTableRecord
100
AcDbBlockTableRecord
  2
block 5
340
0
102
{BLKREFS
331
51
102
}
  0
BLOCK_RECORD
  5
58
330
1
100
AcDbSymbolTableRecord
100
AcDbBlockTableRecord
  2
block 6
340
0
102
{BLKREFS
331
59
102
}
  0
BLOCK_RECORD
  5
60
330
1
100
AcDbSymbolTableRecord
100
AcDbBlockTableRecord
  2
block 7
340
0
102
{BLKREFS
331
61
102
}
  0
BLOCK_RECORD
  5
6B
330
1
100
AcDbSymbolTableRecord
100
AcDbBlockTableRecord
  2
block 8
340
0
102
{BLKREFS
331
6C
102
}
  0
BLOCK_RECORD
  5
76
330
1
100
AcDbSymbolTableRecord
100
AcDbBlockTableRecord
  2
block 9
340
0
102
{BLKREFS
331
77
102
}
  0
BLOCK_RECORD
  5
7C
330
1
100
AcDbSymbolTableRecord
100
AcDbBlockTableRecord
  2
block 10
340
0
102
{BLKREFS
331
7D
102
}
  0
BLOCK_RECORD
  5
84
330
1
100
AcDbSymbolTableRecord
100
AcDbBlockTableRecord
  2
block 11
340
0
102
{BLKREFS
331
85
102
}
  0
BLOCK_RECORD
  5
8C
330
1
100
AcDbSymbolTableRecord
100
AcDbBlockTableRecord
  2
block 12
340
0
102
{BLKREFS
331
8D
102
}
  0
BLOCK_RECORD
  5
94
330
1
100
AcDbSymbolTableRecord
100
AcDbBlockTableRecord
  2
block 13
340
0
102
{BLKREFS
331
95
102
}
  0
BLOCK_RECORD
  5
98
330
1
100
AcDbSymbolTableRecord
100
AcDbBlockTableRecord
  2
block 14
340
0
102
{BLKREFS
331
99
102
}
  0
BLOCK_RECORD
  5
A0
330
1
100
AcDbSymbolTableRecord
100
AcDbBlockTableRecord
  2
block 15
340
0
102
{BLKREFS
331
A1
102
}
  0
BLOCK_RECORD
  5
A8
330
1
100
AcDbSymbolTableRecord
100
AcDbBlockTableRecord
  2
block 16
340
0
102
{BLKREFS
331
A9
102
}
  0
BLOCK_RECORD
  5
B0
330
1
100
AcDbSymbolTableRecord
100
AcDbBlockTableRecord
  2
block 17
340
0
102
{BLKREFS
331
B1
102
}
  0
BLOCK_RECORD
  5
B8
330
1
100
AcDbSymbolTableRecord
100
AcDbBlockTableRecord
  2
block 18
340
0
102
{BLKREFS
331
B9
102
}
  0
BLOCK_RECORD
  5
C3
330
1
100
AcDbSymbolTableRecord
100
AcDbBlockTableRecord
  2
block 19
340
0
102
{BLKREFS
331
C4
102
}
  0
BLOCK_RECORD
  5
CE
330
1
100
AcDbSymbolTableRecord
100
AcDbBlockTableRecord
  2
block 20
340
0
102
{BLKREFS
331
CF
102
}
  0
BLOCK_RECORD
  5
D4
330
1
100
AcDbSymbolTableRecord
100
AcDbBlockTableRecord
  2
block 21
340
0
102
{BLKREFS
331
D5
102
}
  0
BLOCK_RECORD
  5
DC
330
1
100
AcDbSymbolTableRecord
100
AcDbBlockTableRecord
  2
block 22
340
0
102
{BLKREFS
331
DD
102
}
  0
BLOCK_RECORD
  5
E4
330
1
100
AcDbSymbolTableRecord
100
AcDbBlockTableRecord
  2
block 23
340
0
102
{BLKREFS
331
E5
102
}
  0
BLOCK_RECORD
  5
EC
330
1
100
AcDbSymbolTableRecord
100
AcDbBlockTableRecord
  2
block 24
340
0
102
{BLKREFS
331
ED
102
}
  0
BLOCK_RECORD
  5
F0
330
1
100
AcDbSymbolTableRecord
100
AcDbBlockTableRecord
  2
block 25
340
0
102
{BLKREFS
331
F1
102
}
  0
BLOCK_RECORD
  5
F8
330
1
100
AcDbSymbolTableRecord
100
AcDbBlockTableRecord
  2
block 26
340
0
102
{BLKREFS
331
F9
102
}
  0
BLOCK_RECORD
  5
100
330
1
100
AcDbSymbolTableRecord
100
AcDbBlockTableRecord
  2
block 27
340
0
102
{BLKREFS
331
101
102
}
  0
BLOCK_RECORD
  5
108
330
1
100
AcDbSymbolTableRecord
100
AcDbBlockTableRecord
  2
block 28
340
0
102
{BLKREFS
331
109
102
}
  0
BLOCK_RECORD
  5
110
330
1
100
AcDbSymbolTableRecord
100
AcDbBlockTableRecord
  2
block 29
340
0
102
{BLKREFS
331
111
102
}
  0
BLOCK_RECORD
  5
11B
330
1
100
AcDbSymbolTableRecord
100
AcDbBlockTableRecord
  2
block 30
340
0
102
{BLKREFS
331
11C
102
}
  0
BLOCK_RECORD
  5
126
330
1
100
AcDbSymbolTableRecord
100
AcDbBlockTableRecord
  2
block 31
340
0
102
{BLKREFS
331
127
102
}
  0
BLOCK_RECORD
  5
12C
330
1
100
AcDbSymbolTableRecord
100
AcDbBlockTableRecord
  2
block 32
340
0
102
{BLKREFS
331
12D
102
}
  0
BLOCK_RECORD
  5
134
330
1
100
AcDbSymbolTableRecord
100
AcDbBlockTableRecord
  2
block 33
340
0
102
{BLKREFS
331
135
102
}
  0
BLOCK_RECORD
  5
13C
330
1
100
AcDbSymbolTableRecord
100
AcDbBlockTableRecord
  2
block 34
340
0
102
{BLKREFS
331
13D
102
}
  0
BLOCK_RECORD
  5
144
330
1
100
AcDbSymbolTableRecord
100
AcDbBlockTableRecord
  2
block 35
340
0
102
{BLKREFS
331
145
102
}
  0
BLOCK_RECORD
  5
157
330
1
100
AcDbSymbolTableRecord
100
AcDbBlockTableRecord
  2
block 36
340
0
102
{BLKREFS
331
158
102
}
  0
BLOCK_RECORD
  5
15D
330
1
100
AcDbSymbolTableRecord
100
AcDbBlockTableRecord
  2
block 37
340
0
102
{BLKREFS
331
15E
102
}
  0
BLOCK_RECORD
  5
168
330
1
100
AcDbSymbolTableRecord
100
AcDbBlockTableRecord
  2
block 38
340
0
102
{BLKREFS
331
169
102
}
  0
BLOCK_RECORD
  5
173
330
1
100
AcDbSymbolTableRecord
100
AcDbBlockTableRecord
  2
block 39
340
0
102
{BLKREFS
331
174
102
}
  0
BLOCK_RECORD
  5
17B
330
1
100
AcDbSymbolTableRecord
100
AcDbBlockTableRecord
  2
block 40
340
0
102
{BLKREFS
331
17C
102
}
  0
BLOCK_RECORD
  5
183
330
1
100
AcDbSymbolTableRecord
100
AcDbBlockTableRecord
  2
block 41
340
0
102
{BLKREFS
331
184
102
}
  0
BLOCK_RECORD
  5
18B
330
1
100
AcDbSymbolTableRecord
100
AcDbBlockTableRecord
  2
block 42
340
0
102
{BLKREFS
331
18C
102
}
  0
BLOCK_RECORD
  5
193
330
1
100
AcDbSymbolTableRecord
100
AcDbBlockTableRecord
  2
block 43
340
0
102
{BLKREFS
331
194
102
}
  0
BLOCK_RECORD
  5
19B
330
1
100
AcDbSymbolTableRecord
100
AcDbBlockTableRecord
  2
block 44
340
0
102
{BLKREFS
331
19C
102
}
  0
BLOCK_RECORD
  5
1A3
330
1
100
AcDbSymbolTableRecord
100
AcDbBlockTableRecord
  2
block 45
340
0
102
{BLKREFS
331
1A4
102
}
  0
BLOCK_RECORD
  5
1AB
330
1
100
AcDbSymbolTableRecord
100
AcDbBlockTableRecord
  2
block 46
340
0
102
{BLKREFS
331
1AC
102
}
  0
BLOCK_RECORD
  5
1B3
330
1
100
AcDbSymbolTableRecord
100
AcDbBlockTableRecord
  2
block 47
340
0
102
{BLKREFS
331
1B4
102
}
  0
BLOCK_RECORD
  5
1B8
330
1
100
AcDbSymbolTableRecord
100
AcDbBlockTableRecord
  2
block 48
340
0
102
{BLKREFS
331
1B9
102
}
  0
BLOCK_RECORD
  5
1CB
330
1
100
AcDbSymbolTableRecord
100
AcDbBlockTableRecord
  2
block 49
340
0
102
{BLKREFS
331
1CC
102
}
  0
BLOCK_RECORD
  5
1D1
330
1
100
AcDbSymbolTableRecord
100
AcDbBlockTableRecord
  2
block 50
340
0
102
{BLKREFS
331
1D2
102
}
  0
BLOCK_RECORD
  5
1D9
330
1
100
AcDbSymbolTableRecord
100
AcDbBlockTableRecord
  2
block 51
340
0
102
{BLKREFS
331
1DA
102
}
  0
BLOCK_RECORD
  5
1E1
330
1
100
AcDbSymbolTableRecord
100
AcDbBlockTableRecord
  2
block 52
340
0
102
{BLKREFS
331
1E2
102
}
  0
BLOCK_RECORD
  5
1E9
330
1
100
AcDbSymbolTableRecord
100
AcDbBlockTableRecord
  2
block 53
340
0
102
{BLKREFS
331
1EA
102
}
  0
BLOCK_RECORD
  5
1F1
330
1
100
AcDbSymbolTableRecord
100
AcDbBlockTableRecord
  2
block 54
340
0
102
{BLKREFS
331
1F2
102
}
  0
BLOCK_RECORD
  5
1F9
330
1
100
AcDbSymbolTableRecord
100
AcDbBlockTableRecord
  2
block 55
340
0
102
{BLKREFS
331
1FA
102
}
  0
BLOCK_RECORD
  5
201
330
1
100
AcDbSymbolTableRecord
100
AcDbBlockTableRecord
  2
block 56
340
0
102
{BLKREFS
331
202
102
}
  0
BLOCK_RECORD
  5
20C
330
1
100
AcDbSymbolTableRecord
100
AcDbBlockTableRecord
  2
block 57
340
0
102
{BLKREFS
331
20D
102
}
  0
BLOCK_RECORD
  5
214
330
1
100
AcDbSymbolTableRecord
100
AcDbBlockTableRecord
  2
block 58
340
0
102
{BLKREFS
331
215
102
}
  0
BLOCK_RECORD
  5
21F
330
1
100
AcDbSymbolTableRecord
100
AcDbBlockTableRecord
  2
block 59
340
0
102
{BLKREFS
331
220
102
}
  0
BLOCK_RECORD
  5
227
330
1
100
AcDbSymbolTableRecord
100
AcDbBlockTableRecord
  2
block 60
340
0
102
{BLKREFS
331
228
102
}
  0
BLOCK_RECORD
  5
22E
330
1
100
AcDbSymbolTableRecord
100
AcDbBlockTableRecord
  2
block 61
340
0
102
{BLKREFS
331
22F
102
}
  0
BLOCK_RECORD
  5
239
330
1
100
AcDbSymbolTableRecord
100
AcDbBlockTableRecord
  2
block 62
340
0
102
{BLKREFS
331
23A
102
}
  0
BLOCK_RECORD
  5
241
330
1
100
AcDbSymbolTableRecord
100
AcDbBlockTableRecord
  2
block 63
340
0
102
{BLKREFS
331
242
102
}
  0
BLOCK_RECORD
  5
249
330
1
100
AcDbSymbolTableRecord
100
AcDbBlockTableRecord
  2
block 64
340
0
102
{BLKREFS
331
24A
102
}
  0
BLOCK_RECORD
  5
24E
330
1
100
AcDbSymbolTableRecord
100
AcDbBlockTableRecord
  2
block 65
340
0
102
{BLKREFS
331
24F
102
}
  0
BLOCK_RECORD
  5
253
330
1
100
AcDbSymbolTableRecord
100
AcDbBlockTableRecord
  2
block 66
340
0
102
{BLKREFS
331
254
102
}
  0
BLOCK_RECORD
  5
258
330
1
100
AcDbSymbolTableRecord
100
AcDbBlockTableRecord
  2
block 67
340
0
102
{BLKREFS
331
259
102
}
  0
BLOCK_RECORD
  5
25D
330
1
100
AcDbSymbolTableRecord
100
AcDbBlockTableRecord
  2
block 68
340
0
102
{BLKREFS
331
25E
102
}
  0
BLOCK_RECORD
  5
262
330
1
100
AcDbSymbolTableRecord
100
AcDbBlockTableRecord
  2
block 69
340
0
102
{BLKREFS
331
263
102
}
  0
BLOCK_RECORD
  5
26A
330
1
100
AcDbSymbolTableRecord
100
AcDbBlockTableRecord
  2
block 70
340
0
102
{BLKREFS
331
26B
102
}
  0
BLOCK_RECORD
  5
272
330
1
100
AcDbSymbolTableRecord
100
AcDbBlockTableRecord
  2
block 71
340
0
102
{BLKREFS
331
273
102
}
  0
BLOCK_RECORD
  5
27A
330
1
100
AcDbSymbolTableRecord
100
AcDbBlockTableRecord
  2
block 72
340
0
102
{BLKREFS
331
27B
102
}
  0
BLOCK_RECORD
  5
282
330
1
100
AcDbSymbolTableRecord
100
AcDbBlockTableRecord
  2
block 73
340
0
102
{BLKREFS
331
283
102
}
  0
BLOCK_RECORD
  5
28A
330
1
100
AcDbSymbolTableRecord
100
AcDbBlockTableRecord
  2
block 74
340
0
102
{BLKREFS
331
28B
102
}
  0
BLOCK_RECORD
  5
292
330
1
100
AcDbSymbolTableRecord
100
AcDbBlockTableRecord
  2
block 75
340
0
102
{BLKREFS
331
293
102
}
  0
BLOCK_RECORD
  5
29A
330
1
100
AcDbSymbolTableRecord
100
AcDbBlockTableRecord
  2
block 76
340
0
102
{BLKREFS
331
29B
102
}
  0
BLOCK_RECORD
  5
2A2
330
1
100
AcDbSymbolTableRecord
100
AcDbBlockTableRecord
  2
block 77
340
0
102
{BLKREFS
331
2A3
102
}
  0
BLOCK_RECORD
  5
2AA
330
1
100
AcDbSymbolTableRecord
100
AcDbBlockTableRecord
  2
block 78
340
0
102
{BLKREFS
331
2AB
102
}
  0
BLOCK_RECORD
  5
2B2
330
1
100
AcDbSymbolTableRecord
100
AcDbBlockTableRecord
  2
block 79
340
0
102
{BLKREFS
331
2B3
102
}
  0
BLOCK_RECORD
  5
2B7
330
1
100
AcDbSymbolTableRecord
100
AcDbBlockTableRecord
  2
block 80
340
0
102
{BLKREFS
331
2B8
102
}
  0
BLOCK_RECORD
  5
2BC
330
1
100
AcDbSymbolTableRecord
100
AcDbBlockTableRecord
  2
block 81
340
0
102
{BLKREFS
331
2BD
102
}
  0
BLOCK_RECORD
  5
2C1
330
1
100
AcDbSymbolTableRecord
100
AcDbBlockTableRecord
  2
block 82
340
0
102
{BLKREFS
331
2C2
102
}
  0
BLOCK_RECORD
  5
2C6
330
1
100
AcDbSymbolTableRecord
100
AcDbBlockTableRecord
  2
block 83
340
0
102
{BLKREFS
331
2C7
102
}
  0
BLOCK_RECORD
  5
2CE
330
1
100
AcDbSymbolTableRecord
100
AcDbBlockTableRecord
  2
block 84
340
0
102
{BLKREFS
331
2CF
102
}
  0
BLOCK_RECORD
  5
2D6
330
1
100
AcDbSymbolTableRecord
100
AcDbBlockTableRecord
  2
block 85
340
0
102
{BLKREFS
331
2D7
102
}
  0
BLOCK_RECORD
  5
2DE
330
1
100
AcDbSymbolTableRecord
100
AcDbBlockTableRecord
  2
block 86
340
0
102
{BLKREFS
331
2DF
102
}
  0
BLOCK_RECORD
  5
2E6
330
1
100
AcDbSymbolTableRecord
100
AcDbBlockTableRecord
  2
block 87
340
0
102
{BLKREFS
331
2E7
102
}
  0
BLOCK_RECORD
  5
2EE
330
1
100
AcDbSymbolTableRecord
100
AcDbBlockTableRecord
  2
block 88
340
0
102
{BLKREFS
331
2EF
102
}
  0
BLOCK_RECORD
  5
2F6
330
1
100
AcDbSymbolTableRecord
100
AcDbBlockTableRecord
  2
block 89
340
0
102
{BLKREFS
331
2F7
102
}
  0
BLOCK_RECORD
  5
2FE
330
1
100
AcDbSymbolTableRecord
100
AcDbBlockTableRecord
  2
block 90
340
0
102
{BLKREFS
331
2FF
102
}
  0
BLOCK_RECORD
  5
307
330
1
100
AcDbSymbolTableRecord
100
AcDbBlockTableRecord
  2
block 91
340
0
102
{BLKREFS
331
308
102
}
  0
BLOCK_RECORD
  5
30C
330
1
100
AcDbSymbolTableRecord
100
AcDbBlockTableRecord
  2
block 92
340
0
102
{BLKREFS
331
30D
102
}
  0
BLOCK_RECORD
  5
311
330
1
100
AcDbSymbolTableRecord
100
AcDbBlockTableRecord
  2
block 93
340
0
102
{BLKREFS
331
312
102
}
  0
BLOCK_RECORD
  5
316
330
1
100
AcDbSymbolTableRecord
100
AcDbBlockTableRecord
  2
block 94
340
0
102
{BLKREFS
331
317
102
}
  0
BLOCK_RECORD
  5
31B
330
1
100
AcDbSymbolTableRecord
100
AcDbBlockTableRecord
  2
block 95
340
0
102
{BLKREFS
331
31C
102
}
  0
BLOCK_RECORD
  5
320
330
1
100
AcDbSymbolTableRecord
100
AcDbBlockTableRecord
  2
block 96
340
0
102
{BLKREFS
331
321
102
}
  0
BLOCK_RECORD
  5
325
330
1
100
AcDbSymbolTableRecord
100
AcDbBlockTableRecord
  2
block 97
340
0
102
{BLKREFS
331
326
102
}
  0
BLOCK_RECORD
  5
32A
330
1
100
AcDbSymbolTableRecord
100
AcDbBlockTableRecord
  2
block 98
340
0
102
{BLKREFS
331
32B
102
}
  0
BLOCK_RECORD
  5
32F
330
1
100
AcDbSymbolTableRecord
100
AcDbBlockTableRecord
  2
block 99
340
0
102
{BLKREFS
331
330
102
}
  0
BLOCK_RECORD
  5
334
330
1
100
AcDbSymbolTableRecord
100
AcDbBlockTableRecord
  2
block 100
340
0
102
{BLKREFS
331
335
102
}
  0
BLOCK_RECORD
  5
339
330
1
100
AcDbSymbolTableRecord
100
AcDbBlockTableRecord
  2
block 101
340
0
102
{BLKREFS
331
33A
102
}
  0
BLOCK_RECORD
  5
33E
330
1
100
AcDbSymbolTableRecord
100
AcDbBlockTableRecord
  2
block 102
340
0
102
{BLKREFS
331
33F
102
}
  0
BLOCK_RECORD
  5
343
330
1
100
AcDbSymbolTableRecord
100
AcDbBlockTableRecord
  2
block 103
340
0
102
{BLKREFS
331
344
102
}
  0
BLOCK_RECORD
  5
348
330
1
100
AcDbSymbolTableRecord
100
AcDbBlockTableRecord
  2
block 104
340
0
102
{BLKREFS
331
349
102
}
  0
BLOCK_RECORD
  5
34D
330
1
100
AcDbSymbolTableRecord
100
AcDbBlockTableRecord
  2
block 105
340
0
102
{BLKREFS
331
34E
102
}
  0
BLOCK_RECORD
  5
352
330
1
100
AcDbSymbolTableRecord
100
AcDbBlockTableRecord
  2
block 106
340
0
102
{BLKREFS
331
353
102
}
  0
BLOCK_RECORD
  5
357
330
1
100
AcDbSymbolTableRecord
100
AcDbBlockTableRecord
  2
block 107
340
0
102
{BLKREFS
331
358
102
}
  0
BLOCK_RECORD
  5
35C
330
1
100
AcDbSymbolTableRecord
100
AcDbBlockTableRecord
  2
block 108
340
0
102
{BLKREFS
331
35D
102
}
  0
BLOCK_RECORD
  5
361
330
1
100
AcDbSymbolTableRecord
100
AcDbBlockTableRecord
  2
block 109
340
0
102
{BLKREFS
331
362
102
}
  0
BLOCK_RECORD
  5
366
330
1
100
AcDbSymbolTableRecord
100
AcDbBlockTableRecord
  2
block 110
340
0
102
{BLKREFS
331
367
102
}
  0
BLOCK_RECORD
  5
36B
330
1
100
AcDbSymbolTableRecord
100
AcDbBlockTableRecord
  2
block 111
340
0
102
{BLKREFS
331
36C
102
}
  0
BLOCK_RECORD
  5
370
330
1
100
AcDbSymbolTableRecord
100
AcDbBlockTableRecord
  2
block 112
340
0
102
{BLKREFS
331
371
102
}
  0
BLOCK_RECORD
  5
375
330
1
100
AcDbSymbolTableRecord
100
AcDbBlockTableRecord
  2
block 113
340
0
102
{BLKREFS
331
376
102
}
  0
BLOCK_RECORD
  5
37A
330
1
100
AcDbSymbolTableRecord
100
AcDbBlockTableRecord
  2
block 114
340
0
102
{BLKREFS
331
37B
102
}
  0
ENDTAB
  0
ENDSEC
  0
SECTION
  2
BLOCKS
  0
BLOCK
  5
20
330
1F
100
AcDbEntity
  8
0
100
AcDbBlockBegin
  2
*Model_Space
 70
     0
 71
     0
 10
0.0
 20
0.0
 30
0.0
  3
*Model_Space
  1

  0
ENDBLK
  5
21
330
1F
100
AcDbEntity
  8
0
100
AcDbBlockEnd
  0
BLOCK
  5
1C
330
1B
100
AcDbEntity
 67
     1
  8
0
100
AcDbBlockBegin
  2
*Paper_Space
 70
     0
 71
     0
 10
0.0
 20
0.0
 30
0.0
  3
*Paper_Space
  1

  0
ENDBLK
  5
1D
330
1B
100
AcDbEntity
 67
     1
  8
0
100
AcDbBlockEnd
  0
BLOCK
  5
24
330
23
100
AcDbEntity
  8
0
100
AcDbBlockBegin
  2
*Paper_Space0
 70
     0
 71
     0
 10
0.0
 20
0.0
 30
0.0
  3
*Paper_Space0
  1

  0
ENDBLK
  5
25
330
23
100
AcDbEntity
  8
0
100
AcDbBlockEnd
  0
BLOCK
  5
3E
330
3C
100
AcDbEntity
  8
0
100
AcDbBlockBegin
  2
block 2
 70
     0
 71
     0
 10
0.0
 20
0.0
 30
0.0
  3
block 2
  1

  0
INSERT
  5
41
330
3C
100
AcDbEntity
  8
DIMLAY
100
AcDbBlockReference
  2
block 3
 10
0.0
 20
0.0
 30
0.0
  0
INSERT
  5
49
330
3C
100
AcDbEntity
  8
DIMLAY
100
AcDbBlockReference
  2
block 4
 10
0.0
 20
0.0
 30
0.0
  0
INSERT
  5
51
330
3C
100
AcDbEntity
  8
DIMLAY
100
AcDbBlockReference
  2
block 5
 10
0.0
 20
0.0
 30
0.0
  0
INSERT
  5
59
330
3C
100
AcDbEntity
  8
DIMLAY
100
AcDbBlockReference
  2
block 6
 10
0.0
 20
0.0
 30
0.0
  0
INSERT
  5
61
330
3C
100
AcDbEntity
  8
DIMLAY
100
AcDbBlockReference
  2
block 7
 10
0.0
 20
0.0
 30
0.0
  0
INSERT
  5
6C
330
3C
100
AcDbEntity
  8
DIMLAY
100
AcDbBlockReference
  2
block 8
 10
0.0
 20
0.0
 30
0.0
  0
INSERT
  5
77
330
3C
100
AcDbEntity
  8
DIMLAY
100
AcDbBlockReference
  2
block 9
 10
0.0
 20
0.0
 30
0.0
  0
INSERT
  5
7D
330
3C
100
AcDbEntity
  8
DIMLAY
100
AcDbBlockReference
  2
block 10
 10
0.0
 20
0.0
 30
0.0
  0
INSERT
  5
85
330
3C
100
AcDbEntity
  8
DIMLAY
100
AcDbBlockReference
  2
block 11
 10
0.0
 20
0.0
 30
0.0
  0
INSERT
  5
8D
330
3C
100
AcDbEntity
  8
DIMLAY
100
AcDbBlockReference
  2
block 12
 10
0.0
 20
0.0
 30
0.0
  0
ENDBLK
  5
3F
330
3C
100
AcDbEntity
  8
0
100
AcDbBlockEnd
  0
BLOCK
  5
42
330
40
100
AcDbEntity
  8
0
100
AcDbBlockBegin
  2
block 3
 70
     0
 71
     0
 10
0.0
 20
0.0
 30
0.0
  3
block 3
  1

  0
POLYLINE
  5
44
330
40
100
AcDbEntity
  8
DIMLAY
 62
     7
420
 16777215
370
    25
100
AcDb2dPolyline
 66
     1
 10
0.0
 20
0.0
 30
0.0
  0
VERTEX
  5
45
330
44
100
AcDbEntity
  8
DIMLAY
 62
     7
420
 16777215
370
    25
100
AcDbVertex
100
AcDb2dVertex
 10
7.391642252604166
 20
8.569295247395832
 30
0.0
  0
VERTEX
  5
46
330
44
100
AcDbEntity
  8
DIMLAY
 62
     7
420
 16777215
370
    25
100
AcDbVertex
100
AcDb2dVertex
 10
7.391642252604166
 20
7.412801106770833
 30
0.0
  0
SEQEND
  5
47
330
44
100
AcDbEntity
  8
DIMLAY
370
    25
  0
ENDBLK
  5
43
330
40
100
AcDbEntity
  8
0
100
AcDbBlockEnd
  0
BLOCK
  5
4A
330
48
100
AcDbEntity
  8
0
100
AcDbBlockBegin
  2
block 4
 70
     0
 71
     0
 10
0.0
 20
0.0
 30
0.0
  3
block 4
  1

  0
POLYLINE
  5
4C
330
48
100
AcDbEntity
  8
DIMLAY
 62
     7
420
 16777215
370
    25
100
AcDb2dPolyline
 66
     1
 10
0.0
 20
0.0
 30
0.0
  0
VERTEX
  5
4D
330
4C
100
AcDbEntity
  8
DIMLAY
 62
     7
420
 16777215
370
    25
100
AcDbVertex
100
AcDb2dVertex
 10
9.547648111979166
 20
8.569295247395832
 30
0.0
  0
VERTEX
  5
4E
330
4C
100
AcDbEntity
  8
DIMLAY
 62
     7
420
 16777215
370
    25
100
AcDbVertex
100
AcDb2dVertex
 10
9.547648111979166
 20
7.412801106770833
 30
0.0
  0
SEQEND
  5
4F
330
4C
100
AcDbEntity
  8
DIMLAY
370
    25
  0
ENDBLK
  5
4B
330
48
100
AcDbEntity
  8
0
100
AcDbBlockEnd
  0
BLOCK
  5
52
330
50
100
AcDbEntity
  8
0
100
AcDbBlockBegin
  2
block 5
 70
     0
 71
     0
 10
0.0
 20
0.0
 30
0.0
  3
block 5
  1

  0
POLYLINE
  5
54
330
50
100
AcDbEntity
  8
DIMLAY
 62
     7
420
 16777215
370
    25
100
AcDb2dPolyline
 66
     1
 10
0.0
 20
0.0
 30
0.0
  0
VERTEX
  5
55
330
54
100
AcDbEntity
  8
DIMLAY
 62
     7
420
 16777215
370
    25
100
AcDbVertex
100
AcDb2dVertex
 10
7.551642523871528
 20
7.572794596354166
 30
0.0
  0
VERTEX
  5
56
330
54
100
AcDbEntity
  8
DIMLAY
 62
     7
420
 16777215
370
    25
100
AcDbVertex
100
AcDb2dVertex
 10
7.848687065972221
 20
7.572794596354166
 30
0.0
  0
SEQEND
  5
57
330
54
100
AcDbEntity
  8
DIMLAY
370
    25
  0
ENDBLK
  5
53
330
50
100
AcDbEntity
  8
0
100
AcDbBlockEnd
  0
BLOCK
  5
5A
330
58
100
AcDbEntity
  8
0
100
AcDbBlockBegin
  2
block 6
 70
     0
 71
     0
 10
0.0
 20
0.0
 30
0.0
  3
block 6
  1

  0
POLYLINE
  5
5C
330
58
100
AcDbEntity
  8
DIMLAY
 62
     7
420
 16777215
370
    25
100
AcDb2dPolyline
 66
     1
 10
0.0
 20
0.0
 30
0.0
  0
VERTEX
  5
5D
330
5C
100
AcDbEntity
  8
DIMLAY
 62
     7
420
 16777215
370
    25
100
AcDbVertex
100
AcDb2dVertex
 10
9.387641059027777
 20
7.572794596354166
 30
0.0
  0
VERTEX
  5
5E
330
5C
100
AcDbEntity
  8
DIMLAY
 62
     7
420
 16777215
370
    25
100
AcDbVertex
100
AcDb2dVertex
 10
9.090589735243055
 20
7.572794596354166
 30
0.0
  0
SEQEND
  5
5F
330
5C
100
AcDbEntity
  8
DIMLAY
370
    25
  0
ENDBLK
  5
5B
330
58
100
AcDbEntity
  8
0
100
AcDbBlockEnd
  0
BLOCK
  5
62
330
60
100
AcDbEntity
  8
0
100
AcDbBlockBegin
  2
block 7
 70
     0
 71
     0
 10
0.0
 20
0.0
 30
0.0
  3
block 7
  1

  0
POLYLINE
  5
64
330
60
100
AcDbEntity
  8
DIMLAY
 62
     7
420
 16777215
370
    35
100
AcDb2dPolyline
 66
     1
 10
0.0
 20
0.0
 30
0.0
  0
VERTEX
  5
65
330
64
100
AcDbEntity
  8
DIMLAY
 62
     7
420
 16777215
370
    35
100
AcDbVertex
100
AcDb2dVertex
 10
7.551642523871528
 20
7.599460177951388
 30
0.0
  0
VERTEX
  5
66
330
64
100
AcDbEntity
  8
DIMLAY
 62
     7
420
 16777215
370
    35
100
AcDbVertex
100
AcDb2dVertex
 10
7.551642523871528
 20
7.546129014756944
 30
0.0
  0
VERTEX
  5
67
330
64
100
AcDbEntity
  8
DIMLAY
 62
     7
420
 16777215
370
    35
100
AcDbVertex
100
AcDb2dVertex
 10
7.391642252604166
 20
7.572794596354166
 30
0.0
  0
VERTEX
  5
68
330
64
100
AcDbEntity
  8
DIMLAY
 62
     7
420
 16777215
370
    35
100
AcDbVertex
100
AcDb2dVertex
 10
7.551642523871528
 20
7.599460177951388
 30
0.0
  0
SEQEND
  5
69
330
64
100
AcDbEntity
  8
DIMLAY
370
    35
  0
HATCH
  5
6A
330
60
100
AcDbEntity
  8
DIMLAY
 62
     7
420
 16777215
100
AcDbHatch
 10
0.0
 20
0.0
 30
0.0
210
0.0
220
0.0
230
1.0
  2
SOLID
 70
     1
 71
     0
 91
        1
 92
        1
 93
        3
 72
     1
 10
7.551642523871528
 20
7.599460177951388
 11
7.551642523871528
 21
7.546129014756944
 72
     1
 10
7.551642523871528
 20
7.546129014756944
 11
7.391642252604166
 21
7.572794596354166
 72
     1
 10
7.391642252604166
 20
7.572794596354166
 11
7.551642523871528
 21
7.599460177951388
 97
        0
 75
     2
 76
     1
 98
        0
  0
ENDBLK
  5
63
330
60
100
AcDbEntity
  8
0
100
AcDbBlockEnd
  0
BLOCK
  5
6D
330
6B
100
AcDbEntity
  8
0
100
AcDbBlockBegin
  2
block 8
 70
     0
 71
     0
 10
0.0
 20
0.0
 30
0.0
  3
block 8
  1

  0
POLYLINE
  5
6F
330
6B
100
AcDbEntity
  8
DIMLAY
 62
     7
420
 16777215
370
    35
100
AcDb2dPolyline
 66
     1
 10
0.0
 20
0.0
 30
0.0
  0
VERTEX
  5
70
330
6F
100
AcDbEntity
  8
DIMLAY
 62
     7
420
 16777215
370
    35
100
AcDbVertex
100
AcDb2dVertex
 10
9.387641059027777
 20
7.599460177951388
 30
0.0
  0
VERTEX
  5
71
330
6F
100
AcDbEntity
  8
DIMLAY
 62
     7
420
 16777215
370
    35
100
AcDbVertex
100
AcDb2dVertex
 10
9.387641059027777
 20
7.546129014756944
 30
0.0
  0
VERTEX
  5
72
330
6F
100
AcDbEntity
  8
DIMLAY
 62
     7
420
 16777215
370
    35
100
AcDbVertex
100
AcDb2dVertex
 10
9.547648111979166
 20
7.572794596354166
 30
0.0
  0
VERTEX
  5
73
330
6F
100
AcDbEntity
  8
DIMLAY
 62
     7
420
 16777215
370
    35
100
AcDbVertex
100
AcDb2dVertex
 10
9.387641059027777
 20
7.599460177951388
 30
0.0
  0
SEQEND
  5
74
330
6F
100
AcDbEntity
  8
DIMLAY
370
    35
  0
HATCH
  5
75
330
6B
100
AcDbEntity
  8
DIMLAY
 62
     7
420
 16777215
100
AcDbHatch
 10
0.0
 20
0.0
 30
0.0
210
0.0
220
0.0
230
1.0
  2
SOLID
 70
     1
 71
     0
 91
        1
 92
        1
 93
        3
 72
     1
 10
9.387641059027777
 20
7.599460177951388
 11
9.387641059027777
 21
7.546129014756944
 72
     1
 10
9.387641059027777
 20
7.546129014756944
 11
9.547648111979166
 21
7.572794596354166
 72
     1
 10
9.547648111979166
 20
7.572794596354166
 11
9.387641059027777
 21
7.599460177951388
 97
        0
 75
     2
 76
     1
 98
        0
  0
ENDBLK
  5
6E
330
6B
100
AcDbEntity
  8
0
100
AcDbBlockEnd
  0
BLOCK
  5
78
330
76
100
AcDbEntity
  8
0
100
AcDbBlockBegin
  2
block 9
 70
     0
 71
     0
 10
0.0
 20
0.0
 30
0.0
  3
block 9
  1

  0
MTEXT
  5
7A
330
76
100
AcDbEntity
  8
DIMLAY
 62
     7
420
 16777215
100
AcDbMText
 10
8.06964111328125
 20
7.626125759548611
 30
0.0
 40
0.160000008477105
 41
0.0
 71
     7
 72
     1
  1
\fMyriad Pro|b0|i0|c0|p34;\W1;2.156"
 73
     1
 44
1.0
  0
MTEXT
  5
7B
330
76
100
AcDbEntity
  8
DIMLAY
 62
     7
420
 16777215
100
AcDbMText
 10
7.902025010850694
 20
7.359469943576388
 30
0.0
 40
0.160000008477105
 41
0.0
 71
     7
 72
     1
  1
\fMyriad Pro|b0|i0|c0|p34;\W1;54.76mm
 73
     1
 44
1.0
  0
ENDBLK
  5
79
330
76
100
AcDbEntity
  8
0
100
AcDbBlockEnd
  0
BLOCK
  5
7E
330
7C
100
AcDbEntity
  8
0
100
AcDbBlockBegin
  2
block 10
 70
     0
 71
     0
 10
0.0
 20
0.0
 30
0.0
  3
block 10
  1

  0
POLYLINE
  5
80
330
7C
100
AcDbEntity
  8
DIMLAY
370
     0
100
AcDb2dPolyline
 66
     1
 10
0.0
 20
0.0
 30
0.0
  0
VERTEX
  5
81
330
80
100
AcDbEntity
  8
DIMLAY
370
     0
100
AcDbVertex
100
AcDb2dVertex
 10
7.391642252604166
 20
8.695298936631945
 30
0.0
  0
VERTEX
  5
82
330
80
100
AcDbEntity
  8
DIMLAY
370
     0
100
AcDbVertex
100
AcDb2dVertex
 10
7.391642252604166
 20
8.695298936631945
 30
0.0
  0
SEQEND
  5
83
330
80
100
AcDbEntity
  8
DIMLAY
370
     0
  0
ENDBLK
  5
7F
330
7C
100
AcDbEntity
  8
0
100
AcDbBlockEnd
  0
BLOCK
  5
86
330
84
100
AcDbEntity
  8
0
100
AcDbBlockBegin
  2
block 11
 70
     0
 71
     0
 10
0.0
 20
0.0
 30
0.0
  3
block 11
  1

  0
POLYLINE
  5
88
330
84
100
AcDbEntity
  8
DIMLAY
370
     0
100
AcDb2dPolyline
 66
     1
 10
0.0
 20
0.0
 30
0.0
  0
VERTEX
  5
89
330
88
100
AcDbEntity
  8
DIMLAY
370
     0
100
AcDbVertex
100
AcDb2dVertex
 10
9.547648111979166
 20
8.695298936631945
 30
0.0
  0
VERTEX
  5
8A
330
88
100
AcDbEntity
  8
DIMLAY
370
     0
100
AcDbVertex
100
AcDb2dVertex
 10
9.547648111979166
 20
8.695298936631945
 30
0.0
  0
SEQEND
  5
8B
330
88
100
AcDbEntity
  8
DIMLAY
370
     0
  0
ENDBLK
  5
87
330
84
100
AcDbEntity
  8
0
100
AcDbBlockEnd
  0
BLOCK
  5
8E
330
8C
100
AcDbEntity
  8
0
100
AcDbBlockBegin
  2
block 12
 70
     0
 71
     0
 10
0.0
 20
0.0
 30
0.0
  3
block 12
  1

  0
POLYLINE
  5
90
330
8C
100
AcDbEntity
  8
DIMLAY
370
     0
100
AcDb2dPolyline
 66
     1
 10
0.0
 20
0.0
 30
0.0
  0
VERTEX
  5
91
330
90
100
AcDbEntity
  8
DIMLAY
370
     0
100
AcDbVertex
100
AcDb2dVertex
 10
9.547648111979166
 20
7.572794596354166
 30
0.0
  0
VERTEX
  5
92
330
90
100
AcDbEntity
  8
DIMLAY
370
     0
100
AcDbVertex
100
AcDb2dVertex
 10
9.547648111979166
 20
7.572794596354166
 30
0.0
  0
SEQEND
  5
93
330
90
100
AcDbEntity
  8
DIMLAY
370
     0
  0
ENDBLK
  5
8F
330
8C
100
AcDbEntity
  8
0
100
AcDbBlockEnd
  0
BLOCK
  5
96
330
94
100
AcDbEntity
  8
0
100
AcDbBlockBegin
  2
block 13
 70
     0
 71
     0
 10
0.0
 20
0.0
 30
0.0
  3
block 13
  1

  0
INSERT
  5
99
330
94
100
AcDbEntity
  8
DIMLAY
100
AcDbBlockReference
  2
block 14
 10
0.0
 20
0.0
 30
0.0
  0
INSERT
  5
A1
330
94
100
AcDbEntity
  8
DIMLAY
100
AcDbBlockReference
  2
block 15
 10
0.0
 20
0.0
 30
0.0
  0
INSERT
  5
A9
330
94
100
AcDbEntity
  8
DIMLAY
100
AcDbBlockReference
  2
block 16
 10
0.0
 20
0.0
 30
0.0
  0
INSERT
  5
B1
330
94
100
AcDbEntity
  8
DIMLAY
100
AcDbBlockReference
  2
block 17
 10
0.0
 20
0.0
 30
0.0
  0
INSERT
  5
B9
330
94
100
AcDbEntity
  8
DIMLAY
100
AcDbBlockReference
  2
block 18
 10
0.0
 20
0.0
 30
0.0
  0
INSERT
  5
C4
330
94
100
AcDbEntity
  8
DIMLAY
100
AcDbBlockReference
  2
block 19
 10
0.0
 20
0.0
 30
0.0
  0
INSERT
  5
CF
330
94
100
AcDbEntity
  8
DIMLAY
100
AcDbBlockReference
  2
block 20
 10
0.0
 20
0.0
 30
0.0
  0
INSERT
  5
D5
330
94
100
AcDbEntity
  8
DIMLAY
100
AcDbBlockReference
  2
block 21
 10
0.0
 20
0.0
 30
0.0
  0
INSERT
  5
DD
330
94
100
AcDbEntity
  8
DIMLAY
100
AcDbBlockReference
  2
block 22
 10
0.0
 20
0.0
 30
0.0
  0
INSERT
  5
E5
330
94
100
AcDbEntity
  8
DIMLAY
100
AcDbBlockReference
  2
block 23
 10
0.0
 20
0.0
 30
0.0
  0
ENDBLK
  5
97
330
94
100
AcDbEntity
  8
0
100
AcDbBlockEnd
  0
BLOCK
  5
9A
330
98
100
AcDbEntity
  8
0
100
AcDbBlockBegin
  2
block 14
 70
     0
 71
     0
 10
0.0
 20
0.0
 30
0.0
  3
block 14
  1

  0
POLYLINE
  5
9C
330
98
100
AcDbEntity
  8
DIMLAY
 62
     7
420
 16777215
370
    25
100
AcDb2dPolyline
 66
     1
 10
0.0
 20
0.0
 30
0.0
  0
VERTEX
  5
9D
330
9C
100
AcDbEntity
  8
DIMLAY
 62
     7
420
 16777215
370
    25
100
AcDbVertex
100
AcDb2dVertex
 10
7.907145182291666
 20
9.547234429253471
 30
0.0
  0
VERTEX
  5
9E
330
9C
100
AcDbEntity
  8
DIMLAY
 62
     7
420
 16777215
370
    25
100
AcDbVertex
100
AcDb2dVertex
 10
7.907145182291666
 20
10.54529486762153
 30
0.0
  0
SEQEND
  5
9F
330
9C
100
AcDbEntity
  8
DIMLAY
370
    25
  0
ENDBLK
  5
9B
330
98
100
AcDbEntity
  8
0
100
AcDbBlockEnd
  0
BLOCK
  5
A2
330
A0
100
AcDbEntity
  8
0
100
AcDbBlockBegin
  2
block 15
 70
     0
 71
     0
 10
0.0
 20
0.0
 30
0.0
  3
block 15
  1

  0
POLYLINE
  5
A4
330
A0
100
AcDbEntity
  8
DIMLAY
 62
     7
420
 16777215
370
    25
100
AcDb2dPolyline
 66
     1
 10
0.0
 20
0.0
 30
0.0
  0
VERTEX
  5
A5
330
A4
100
AcDbEntity
  8
DIMLAY
 62
     7
420
 16777215
370
    25
100
AcDbVertex
100
AcDb2dVertex
 10
8.282145182291666
 20
9.547234429253471
 30
0.0
  0
VERTEX
  5
A6
330
A4
100
AcDbEntity
  8
DIMLAY
 62
     7
420
 16777215
370
    25
100
AcDbVertex
100
AcDb2dVertex
 10
8.282145182291666
 20
10.54529486762153
 30
0.0
  0
SEQEND
  5
A7
330
A4
100
AcDbEntity
  8
DIMLAY
370
    25
  0
ENDBLK
  5
A3
330
A0
100
AcDbEntity
  8
0
100
AcDbBlockEnd
  0
BLOCK
  5
AA
330
A8
100
AcDbEntity
  8
0
100
AcDbBlockBegin
  2
block 16
 70
     0
 71
     0
 10
0.0
 20
0.0
 30
0.0
  3
block 16
  1

  0
POLYLINE
  5
AC
330
A8
100
AcDbEntity
  8
DIMLAY
 62
     7
420
 16777215
370
    25
100
AcDb2dPolyline
 66
     1
 10
0.0
 20
0.0
 30
0.0
  0
VERTEX
  5
AD
330
AC
100
AcDbEntity
  8
DIMLAY
 62
     7
420
 16777215
370
    25
100
AcDbVertex
100
AcDb2dVertex
 10
7.747144911024305
 20
10.38529459635417
 30
0.0
  0
VERTEX
  5
AE
330
AC
100
AcDbEntity
  8
DIMLAY
 62
     7
420
 16777215
370
    25
100
AcDbVertex
100
AcDb2dVertex
 10
7.587144639756944
 20
10.38529459635417
 30
0.0
  0
SEQEND
  5
AF
330
AC
100
AcDbEntity
  8
DIMLAY
370
    25
  0
ENDBLK
  5
AB
330
A8
100
AcDbEntity
  8
0
100
AcDbBlockEnd
  0
BLOCK
  5
B2
330
B0
100
AcDbEntity
  8
0
100
AcDbBlockBegin
  2
block 17
 70
     0
 71
     0
 10
0.0
 20
0.0
 30
0.0
  3
block 17
  1

  0
POLYLINE
  5
B4
330
B0
100
AcDbEntity
  8
DIMLAY
 62
     7
420
 16777215
370
    25
100
AcDb2dPolyline
 66
     1
 10
0.0
 20
0.0
 30
0.0
  0
VERTEX
  5
B5
330
B4
100
AcDbEntity
  8
DIMLAY
 62
     7
420
 16777215
370
    25
100
AcDbVertex
100
AcDb2dVertex
 10
8.442145453559027
 20
10.38529459635417
 30
0.0
  0
VERTEX
  5
B6
330
B4
100
AcDbEntity
  8
DIMLAY
 62
     7
420
 16777215
370
    25
100
AcDbVertex
100
AcDb2dVertex
 10
8.674879286024305
 20
10.38529459635417
 30
0.0
  0
SEQEND
  5
B7
330
B4
100
AcDbEntity
  8
DIMLAY
370
    25
  0
ENDBLK
  5
B3
330
B0
100
AcDbEntity
  8
0
100
AcDbBlockEnd
  0
BLOCK
  5
BA
330
B8
100
AcDbEntity
  8
0
100
AcDbBlockBegin
  2
block 18
 70
     0
 71
     0
 10
0.0
 20
0.0
 30
0.0
  3
block 18
  1

  0
POLYLINE
  5
BC
330
B8
100
AcDbEntity
  8
DIMLAY
 62
     7
420
 16777215
370
    35
100
AcDb2dPolyline
 66
     1
 10
0.0
 20
0.0
 30
0.0
  0
VERTEX
  5
BD
330
BC
100
AcDbEntity
  8
DIMLAY
 62
     7
420
 16777215
370
    35
100
AcDbVertex
100
AcDb2dVertex
 10
7.747144911024305
 20
10.41196695963542
 30
0.0
  0
VERTEX
  5
BE
330
BC
100
AcDbEntity
  8
DIMLAY
 62
     7
420
 16777215
370
    35
100
AcDbVertex
100
AcDb2dVertex
 10
7.747144911024305
 20
10.35862901475694
 30
0.0
  0
VERTEX
  5
BF
330
BC
100
AcDbEntity
  8
DIMLAY
 62
     7
420
 16777215
370
    35
100
AcDbVertex
100
AcDb2dVertex
 10
7.907145182291666
 20
10.38529459635417
 30
0.0
  0
VERTEX
  5
C0
330
BC
100
AcDbEntity
  8
DIMLAY
 62
     7
420
 16777215
370
    35
100
AcDbVertex
100
AcDb2dVertex
 10
7.747144911024305
 20
10.41196695963542
 30
0.0
  0
SEQEND
  5
C1
330
BC
100
AcDbEntity
  8
DIMLAY
370
    35
  0
HATCH
  5
C2
330
B8
100
AcDbEntity
  8
DIMLAY
 62
     7
420
 16777215
100
AcDbHatch
 10
0.0
 20
0.0
 30
0.0
210
0.0
220
0.0
230
1.0
  2
SOLID
 70
     1
 71
     0
 91
        1
 92
        1
 93
        3
 72
     1
 10
7.747144911024305
 20
10.41196695963542
 11
7.747144911024305
 21
10.35862901475694
 72
     1
 10
7.747144911024305
 20
10.35862901475694
 11
7.907145182291666
 21
10.38529459635417
 72
     1
 10
7.907145182291666
 20
10.38529459635417
 11
7.747144911024305
 21
10.41196695963542
 97
        0
 75
     2
 76
     1
 98
        0
  0
ENDBLK
  5
BB
330
B8
100
AcDbEntity
  8
0
100
AcDbBlockEnd
  0
BLOCK
  5
C5
330
C3
100
AcDbEntity
  8
0
100
AcDbBlockBegin
  2
block 19
 70
     0
 71
     0
 10
0.0
 20
0.0
 30
0.0
  3
block 19
  1

  0
POLYLINE
  5
C7
330
C3
100
AcDbEntity
  8
DIMLAY
 62
     7
420
 16777215
370
    35
100
AcDb2dPolyline
 66
     1
 10
0.0
 20
0.0
 30
0.0
  0
VERTEX
  5
C8
330
C7
100
AcDbEntity
  8
DIMLAY
 62
     7
420
 16777215
370
    35
100
AcDbVertex
100
AcDb2dVertex
 10
8.442145453559027
 20
10.41196695963542
 30
0.0
  0
VERTEX
  5
C9
330
C7
100
AcDbEntity
  8
DIMLAY
 62
     7
420
 16777215
370
    35
100
AcDbVertex
100
AcDb2dVertex
 10
8.442145453559027
 20
10.35862901475694
 30
0.0
  0
VERTEX
  5
CA
330
C7
100
AcDbEntity
  8
DIMLAY
 62
     7
420
 16777215
370
    35
100
AcDbVertex
100
AcDb2dVertex
 10
8.282145182291666
 20
10.38529459635417
 30
0.0
  0
VERTEX
  5
CB
330
C7
100
AcDbEntity
  8
DIMLAY
 62
     7
420
 16777215
370
    35
100
AcDbVertex
100
AcDb2dVertex
 10
8.442145453559027
 20
10.41196695963542
 30
0.0
  0
SEQEND
  5
CC
330
C7
100
AcDbEntity
  8
DIMLAY
370
    35
  0
HATCH
  5
CD
330
C3
100
AcDbEntity
  8
DIMLAY
 62
     7
420
 16777215
100
AcDbHatch
 10
0.0
 20
0.0
 30
0.0
210
0.0
220
0.0
230
1.0
  2
SOLID
 70
     1
 71
     0
 91
        1
 92
        1
 93
        3
 72
     1
 10
8.442145453559027
 20
10.41196695963542
 11
8.442145453559027
 21
10.35862901475694
 72
     1
 10
8.442145453559027
 20
10.35862901475694
 11
8.282145182291666
 21
10.38529459635417
 72
     1
 10
8.282145182291666
 20
10.38529459635417
 11
8.442145453559027
 21
10.41196695963542
 97
        0
 75
     2
 76
     1
 98
        0
  0
ENDBLK
  5
C6
330
C3
100
AcDbEntity
  8
0
100
AcDbBlockEnd
  0
BLOCK
  5
D0
330
CE
100
AcDbEntity
  8
0
100
AcDbBlockBegin
  2
block 20
 70
     0
 71
     0
 10
0.0
 20
0.0
 30
0.0
  3
block 20
  1

  0
MTEXT
  5
D2
330
CE
100
AcDbEntity
  8
DIMLAY
 62
     7
420
 16777215
100
AcDbMText
 10
8.81964111328125
 20
10.43862575954861
 30
0.0
 40
0.160000008477105
 41
0.0
 71
     7
 72
     1
  1
\fMyriad Pro|b0|i0|c0|p34;\W1;0.375"
 73
     1
 44
1.0
  0
MTEXT
  5
D3
330
CE
100
AcDbEntity
  8
DIMLAY
 62
     7
420
 16777215
100
AcDbMText
 10
8.728217230902777
 20
10.17196994357639
 30
0.0
 40
0.160000008477105
 41
0.0
 71
     7
 72
     1
  1
\fMyriad Pro|b0|i0|c0|p34;\W1;9.53mm
 73
     1
 44
1.0
  0
ENDBLK
  5
D1
330
CE
100
AcDbEntity
  8
0
100
AcDbBlockEnd
  0
BLOCK
  5
D6
330
D4
100
AcDbEntity
  8
0
100
AcDbBlockBegin
  2
block 21
 70
     0
 71
     0
 10
0.0
 20
0.0
 30
0.0
  3
block 21
  1

  0
POLYLINE
  5
D8
330
D4
100
AcDbEntity
  8
DIMLAY
370
     0
100
AcDb2dPolyline
 66
     1
 10
0.0
 20
0.0
 30
0.0
  0
VERTEX
  5
D9
330
D8
100
AcDbEntity
  8
DIMLAY
370
     0
100
AcDbVertex
100
AcDb2dVertex
 10
7.907145182291666
 20
9.421237521701388
 30
0.0
  0
VERTEX
  5
DA
330
D8
100
AcDbEntity
  8
DIMLAY
370
     0
100
AcDbVertex
100
AcDb2dVertex
 10
7.907145182291666
 20
9.421237521701388
 30
0.0
  0
SEQEND
  5
DB
330
D8
100
AcDbEntity
  8
DIMLAY
370
     0
  0
ENDBLK
  5
D7
330
D4
100
AcDbEntity
  8
0
100
AcDbBlockEnd
  0
BLOCK
  5
DE
330
DC
100
AcDbEntity
  8
0
100
AcDbBlockBegin
  2
block 22
 70
     0
 71
     0
 10
0.0
 20
0.0
 30
0.0
  3
block 22
  1

  0
POLYLINE
  5
E0
330
DC
100
AcDbEntity
  8
DIMLAY
370
     0
100
AcDb2dPolyline
 66
     1
 10
0.0
 20
0.0
 30
0.0
  0
VERTEX
  5
E1
330
E0
100
AcDbEntity
  8
DIMLAY
370
     0
100
AcDbVertex
100
AcDb2dVertex
 10
8.282145182291666
 20
9.421237521701388
 30
0.0
  0
VERTEX
  5
E2
330
E0
100
AcDbEntity
  8
DIMLAY
370
     0
100
AcDbVertex
100
AcDb2dVertex
 10
8.282145182291666
 20
9.421237521701388
 30
0.0
  0
SEQEND
  5
E3
330
E0
100
AcDbEntity
  8
DIMLAY
370
     0
  0
ENDBLK
  5
DF
330
DC
100
AcDbEntity
  8
0
100
AcDbBlockEnd
  0
BLOCK
  5
E6
330
E4
100
AcDbEntity
  8
0
100
AcDbBlockBegin
  2
block 23
 70
     0
 71
     0
 10
0.0
 20
0.0
 30
0.0
  3
block 23
  1

  0
POLYLINE
  5
E8
330
E4
100
AcDbEntity
  8
DIMLAY
370
     0
100
AcDb2dPolyline
 66
     1
 10
0.0
 20
0.0
 30
0.0
  0
VERTEX
  5
E9
330
E8
100
AcDbEntity
  8
DIMLAY
370
     0
100
AcDbVertex
100
AcDb2dVertex
 10
8.282145182291666
 20
10.38529459635417
 30
0.0
  0
VERTEX
  5
EA
330
E8
100
AcDbEntity
  8
DIMLAY
370
     0
100
AcDbVertex
100
AcDb2dVertex
 10
8.282145182291666
 20
10.38529459635417
 30
0.0
  0
SEQEND
  5
EB
330
E8
100
AcDbEntity
  8
DIMLAY
370
     0
  0
ENDBLK
  5
E7
330
E4
100
AcDbEntity
  8
0
100
AcDbBlockEnd
  0
BLOCK
  5
EE
330
EC
100
AcDbEntity
  8
0
100
AcDbBlockBegin
  2
block 24
 70
     0
 71
     0
 10
0.0
 20
0.0
 30
0.0
  3
block 24
  1

  0
INSERT
  5
F1
330
EC
100
AcDbEntity
  8
DIMLAY
100
AcDbBlockReference
  2
block 25
 10
0.0
 20
0.0
 30
0.0
  0
INSERT
  5
F9
330
EC
100
AcDbEntity
  8
DIMLAY
100
AcDbBlockReference
  2
block 26
 10
0.0
 20
0.0
 30
0.0
  0
INSERT
  5
101
330
EC
100
AcDbEntity
  8
DIMLAY
100
AcDbBlockReference
  2
block 27
 10
0.0
 20
0.0
 30
0.0
  0
INSERT
  5
109
330
EC
100
AcDbEntity
  8
DIMLAY
100
AcDbBlockReference
  2
block 28
 10
0.0
 20
0.0
 30
0.0
  0
INSERT
  5
111
330
EC
100
AcDbEntity
  8
DIMLAY
100
AcDbBlockReference
  2
block 29
 10
0.0
 20
0.0
 30
0.0
  0
INSERT
  5
11C
330
EC
100
AcDbEntity
  8
DIMLAY
100
AcDbBlockReference
  2
block 30
 10
0.0
 20
0.0
 30
0.0
  0
INSERT
  5
127
330
EC
100
AcDbEntity
  8
DIMLAY
100
AcDbBlockReference
  2
block 31
 10
0.0
 20
0.0
 30
0.0
  0
INSERT
  5
12D
330
EC
100
AcDbEntity
  8
DIMLAY
100
AcDbBlockReference
  2
block 32
 10
0.0
 20
0.0
 30
0.0
  0
INSERT
  5
135
330
EC
100
AcDbEntity
  8
DIMLAY
100
AcDbBlockReference
  2
block 33
 10
0.0
 20
0.0
 30
0.0
  0
INSERT
  5
13D
330
EC
100
AcDbEntity
  8
DIMLAY
100
AcDbBlockReference
  2
block 34
 10
0.0
 20
0.0
 30
0.0
  0
ENDBLK
  5
EF
330
EC
100
AcDbEntity
  8
0
100
AcDbBlockEnd
  0
BLOCK
  5
F2
330
F0
100
AcDbEntity
  8
0
100
AcDbBlockBegin
  2
block 25
 70
     0
 71
     0
 10
0.0
 20
0.0
 30
0.0
  3
block 25
  1

  0
POLYLINE
  5
F4
330
F0
100
AcDbEntity
  8
DIMLAY
 62
     7
420
 16777215
370
    25
100
AcDb2dPolyline
 66
     1
 10
0.0
 20
0.0
 30
0.0
  0
VERTEX
  5
F5
330
F4
100
AcDbEntity
  8
DIMLAY
 62
     7
420
 16777215
370
    25
100
AcDbVertex
100
AcDb2dVertex
 10
7.532145182291666
 20
8.734293619791666
 30
0.0
  0
VERTEX
  5
F6
330
F4
100
AcDbEntity
  8
DIMLAY
 62
     7
420
 16777215
370
    25
100
AcDbVertex
100
AcDb2dVertex
 10
7.532145182291666
 20
7.975301106770833
 30
0.0
  0
SEQEND
  5
F7
330
F4
100
AcDbEntity
  8
DIMLAY
370
    25
  0
ENDBLK
  5
F3
330
F0
100
AcDbEntity
  8
0
100
AcDbBlockEnd
  0
BLOCK
  5
FA
330
F8
100
AcDbEntity
  8
0
100
AcDbBlockBegin
  2
block 26
 70
     0
 71
     0
 10
0.0
 20
0.0
 30
0.0
  3
block 26
  1

  0
POLYLINE
  5
FC
330
F8
100
AcDbEntity
  8
DIMLAY
 62
     7
420
 16777215
370
    25
100
AcDb2dPolyline
 66
     1
 10
0.0
 20
0.0
 30
0.0
  0
VERTEX
  5
FD
330
FC
100
AcDbEntity
  8
DIMLAY
 62
     7
420
 16777215
370
    25
100
AcDbVertex
100
AcDb2dVertex
 10
9.407145182291666
 20
8.734293619791666
 30
0.0
  0
VERTEX
  5
FE
330
FC
100
AcDbEntity
  8
DIMLAY
 62
     7
420
 16777215
370
    25
100
AcDbVertex
100
AcDb2dVertex
 10
9.407145182291666
 20
7.975301106770833
 30
0.0
  0
SEQEND
  5
FF
330
FC
100
AcDbEntity
  8
DIMLAY
370
    25
  0
ENDBLK
  5
FB
330
F8
100
AcDbEntity
  8
0
100
AcDbBlockEnd
  0
BLOCK
  5
102
330
100
100
AcDbEntity
  8
0
100
AcDbBlockBegin
  2
block 27
 70
     0
 71
     0
 10
0.0
 20
0.0
 30
0.0
  3
block 27
  1

  0
POLYLINE
  5
104
330
100
100
AcDbEntity
  8
DIMLAY
 62
     7
420
 16777215
370
    25
100
AcDb2dPolyline
 66
     1
 10
0.0
 20
0.0
 30
0.0
  0
VERTEX
  5
105
330
104
100
AcDbEntity
  8
DIMLAY
 62
     7
420
 16777215
370
    25
100
AcDbVertex
100
AcDb2dVertex
 10
7.692145453559028
 20
8.135294596354166
 30
0.0
  0
VERTEX
  5
106
330
104
100
AcDbEntity
  8
DIMLAY
 62
     7
420
 16777215
370
    25
100
AcDbVertex
100
AcDb2dVertex
 10
7.848687065972221
 20
8.135294596354166
 30
0.0
  0
SEQEND
  5
107
330
104
100
AcDbEntity
  8
DIMLAY
370
    25
  0
ENDBLK
  5
103
330
100
100
AcDbEntity
  8
0
100
AcDbBlockEnd
  0
BLOCK
  5
10A
330
108
100
AcDbEntity
  8
0
100
AcDbBlockBegin
  2
block 28
 70
     0
 71
     0
 10
0.0
 20
0.0
 30
0.0
  3
block 28
  1

  0
POLYLINE
  5
10C
330
108
100
AcDbEntity
  8
DIMLAY
 62
     7
420
 16777215
370
    25
100
AcDb2dPolyline
 66
     1
 10
0.0
 20
0.0
 30
0.0
  0
VERTEX
  5
10D
330
10C
100
AcDbEntity
  8
DIMLAY
 62
     7
420
 16777215
370
    25
100
AcDbVertex
100
AcDb2dVertex
 10
9.247138129340277
 20
8.135294596354166
 30
0.0
  0
VERTEX
  5
10E
330
10C
100
AcDbEntity
  8
DIMLAY
 62
     7
420
 16777215
370
    25
100
AcDbVertex
100
AcDb2dVertex
 10
9.090589735243055
 20
8.135294596354166
 30
0.0
  0
SEQEND
  5
10F
330
10C
100
AcDbEntity
  8
DIMLAY
370
    25
  0
ENDBLK
  5
10B
330
108
100
AcDbEntity
  8
0
100
AcDbBlockEnd
  0
BLOCK
  5
112
330
110
100
AcDbEntity
  8
0
100
AcDbBlockBegin
  2
block 29
 70
     0
 71
     0
 10
0.0
 20
0.0
 30
0.0
  3
block 29
  1

  0
POLYLINE
  5
114
330
110
100
AcDbEntity
  8
DIMLAY
 62
     7
420
 16777215
370
    35
100
AcDb2dPolyline
 66
     1
 10
0.0
 20
0.0
 30
0.0
  0
VERTEX
  5
115
330
114
100
AcDbEntity
  8
DIMLAY
 62
     7
420
 16777215
370
    35
100
AcDbVertex
100
AcDb2dVertex
 10
7.692145453559028
 20
8.16196017795139
 30
0.0
  0
VERTEX
  5
116
330
114
100
AcDbEntity
  8
DIMLAY
 62
     7
420
 16777215
370
    35
100
AcDbVertex
100
AcDb2dVertex
 10
7.692145453559028
 20
8.108629014756945
 30
0.0
  0
VERTEX
  5
117
330
114
100
AcDbEntity
  8
DIMLAY
 62
     7
420
 16777215
370
    35
100
AcDbVertex
100
AcDb2dVertex
 10
7.532145182291666
 20
8.135294596354166
 30
0.0
  0
VERTEX
  5
118
330
114
100
AcDbEntity
  8
DIMLAY
 62
     7
420
 16777215
370
    35
100
AcDbVertex
100
AcDb2dVertex
 10
7.692145453559028
 20
8.16196017795139
 30
0.0
  0
SEQEND
  5
119
330
114
100
AcDbEntity
  8
DIMLAY
370
    35
  0
HATCH
  5
11A
330
110
100
AcDbEntity
  8
DIMLAY
 62
     7
420
 16777215
100
AcDbHatch
 10
0.0
 20
0.0
 30
0.0
210
0.0
220
0.0
230
1.0
  2
SOLID
 70
     1
 71
     0
 91
        1
 92
        1
 93
        3
 72
     1
 10
7.692145453559028
 20
8.16196017795139
 11
7.692145453559028
 21
8.108629014756945
 72
     1
 10
7.692145453559028
 20
8.108629014756945
 11
7.532145182291666
 21
8.135294596354166
 72
     1
 10
7.532145182291666
 20
8.135294596354166
 11
7.692145453559028
 21
8.16196017795139
 97
        0
 75
     2
 76
     1
 98
        0
  0
ENDBLK
  5
113
330
110
100
AcDbEntity
  8
0
100
AcDbBlockEnd
  0
BLOCK
  5
11D
330
11B
100
AcDbEntity
  8
0
100
AcDbBlockBegin
  2
block 30
 70
     0
 71
     0
 10
0.0
 20
0.0
 30
0.0
  3
block 30
  1

  0
POLYLINE
  5
11F
330
11B
100
AcDbEntity
  8
DIMLAY
 62
     7
420
 16777215
370
    35
100
AcDb2dPolyline
 66
     1
 10
0.0
 20
0.0
 30
0.0
  0
VERTEX
  5
120
330
11F
100
AcDbEntity
  8
DIMLAY
 62
     7
420
 16777215
370
    35
100
AcDbVertex
100
AcDb2dVertex
 10
9.247138129340277
 20
8.16196017795139
 30
0.0
  0
VERTEX
  5
121
330
11F
100
AcDbEntity
  8
DIMLAY
 62
     7
420
 16777215
370
    35
100
AcDbVertex
100
AcDb2dVertex
 10
9.247138129340277
 20
8.108629014756945
 30
0.0
  0
VERTEX
  5
122
330
11F
100
AcDbEntity
  8
DIMLAY
 62
     7
420
 16777215
370
    35
100
AcDbVertex
100
AcDb2dVertex
 10
9.407145182291666
 20
8.135294596354166
 30
0.0
  0
VERTEX
  5
123
330
11F
100
AcDbEntity
  8
DIMLAY
 62
     7
420
 16777215
370
    35
100
AcDbVertex
100
AcDb2dVertex
 10
9.247138129340277
 20
8.16196017795139
 30
0.0
  0
SEQEND
  5
124
330
11F
100
AcDbEntity
  8
DIMLAY
370
    35
  0
HATCH
  5
125
330
11B
100
AcDbEntity
  8
DIMLAY
 62
     7
420
 16777215
100
AcDbHatch
 10
0.0
 20
0.0
 30
0.0
210
0.0
220
0.0
230
1.0
  2
SOLID
 70
     1
 71
     0
 91
        1
 92
        1
 93
        3
 72
     1
 10
9.247138129340277
 20
8.16196017795139
 11
9.247138129340277
 21
8.108629014756945
 72
     1
 10
9.247138129340277
 20
8.108629014756945
 11
9.407145182291666
 21
8.135294596354166
 72
     1
 10
9.407145182291666
 20
8.135294596354166
 11
9.247138129340277
 21
8.16196017795139
 97
        0
 75
     2
 76
     1
 98
        0
  0
ENDBLK
  5
11E
330
11B
100
AcDbEntity
  8
0
100
AcDbBlockEnd
  0
BLOCK
  5
128
330
126
100
AcDbEntity
  8
0
100
AcDbBlockBegin
  2
block 31
 70
     0
 71
     0
 10
0.0
 20
0.0
 30
0.0
  3
block 31
  1

  0
MTEXT
  5
12A
330
126
100
AcDbEntity
  8
DIMLAY
 62
     7
420
 16777215
100
AcDbMText
 10
8.058213975694445
 20
8.18862575954861
 30
0.0
 40
0.160000008477105
 41
0.0
 71
     7
 72
     1
  1
\fMyriad Pro|b0|i0|c0|p34;\W1;1.875"
 73
     1
 44
1.0
  0
MTEXT
  5
12B
330
126
100
AcDbEntity
  8
DIMLAY
 62
     7
420
 16777215
100
AcDbMText
 10
7.902025010850694
 20
7.921969943576388
 30
0.0
 40
0.160000008477105
 41
0.0
 71
     7
 72
     1
  1
\fMyriad Pro|b0|i0|c0|p34;\W1;47.63mm
 73
     1
 44
1.0
  0
ENDBLK
  5
129
330
126
100
AcDbEntity
  8
0
100
AcDbBlockEnd
  0
BLOCK
  5
12E
330
12C
100
AcDbEntity
  8
0
100
AcDbBlockBegin
  2
block 32
 70
     0
 71
     0
 10
0.0
 20
0.0
 30
0.0
  3
block 32
  1

  0
POLYLINE
  5
130
330
12C
100
AcDbEntity
  8
DIMLAY
370
     0
100
AcDb2dPolyline
 66
     1
 10
0.0
 20
0.0
 30
0.0
  0
VERTEX
  5
131
330
130
100
AcDbEntity
  8
DIMLAY
370
     0
100
AcDbVertex
100
AcDb2dVertex
 10
7.532145182291666
 20
8.860297309027777
 30
0.0
  0
VERTEX
  5
132
330
130
100
AcDbEntity
  8
DIMLAY
370
     0
100
AcDbVertex
100
AcDb2dVertex
 10
7.532145182291666
 20
8.860297309027777
 30
0.0
  0
SEQEND
  5
133
330
130
100
AcDbEntity
  8
DIMLAY
370
     0
  0
ENDBLK
  5
12F
330
12C
100
AcDbEntity
  8
0
100
AcDbBlockEnd
  0
BLOCK
  5
136
330
134
100
AcDbEntity
  8
0
100
AcDbBlockBegin
  2
block 33
 70
     0
 71
     0
 10
0.0
 20
0.0
 30
0.0
  3
block 33
  1

  0
POLYLINE
  5
138
330
134
100
AcDbEntity
  8
DIMLAY
370
     0
100
AcDb2dPolyline
 66
     1
 10
0.0
 20
0.0
 30
0.0
  0
VERTEX
  5
139
330
138
100
AcDbEntity
  8
DIMLAY
370
     0
100
AcDbVertex
100
AcDb2dVertex
 10
9.407145182291666
 20
8.860297309027777
 30
0.0
  0
VERTEX
  5
13A
330
138
100
AcDbEntity
  8
DIMLAY
370
     0
100
AcDbVertex
100
AcDb2dVertex
 10
9.407145182291666
 20
8.860297309027777
 30
0.0
  0
SEQEND
  5
13B
330
138
100
AcDbEntity
  8
DIMLAY
370
     0
  0
ENDBLK
  5
137
330
134
100
AcDbEntity
  8
0
100
AcDbBlockEnd
  0
BLOCK
  5
13E
330
13C
100
AcDbEntity
  8
0
100
AcDbBlockBegin
  2
block 34
 70
     0
 71
     0
 10
0.0
 20
0.0
 30
0.0
  3
block 34
  1

  0
POLYLINE
  5
140
330
13C
100
AcDbEntity
  8
DIMLAY
370
     0
100
AcDb2dPolyline
 66
     1
 10
0.0
 20
0.0
 30
0.0
  0
VERTEX
  5
141
330
140
100
AcDbEntity
  8
DIMLAY
370
     0
100
AcDbVertex
100
AcDb2dVertex
 10
9.407145182291666
 20
8.135294596354166
 30
0.0
  0
VERTEX
  5
142
330
140
100
AcDbEntity
  8
DIMLAY
370
     0
100
AcDbVertex
100
AcDb2dVertex
 10
9.407145182291666
 20
8.135294596354166
 30
0.0
  0
SEQEND
  5
143
330
140
100
AcDbEntity
  8
DIMLAY
370
     0
  0
ENDBLK
  5
13F
330
13C
100
AcDbEntity
  8
0
100
AcDbBlockEnd
  0
BLOCK
  5
146
330
144
100
AcDbEntity
  8
0
100
AcDbBlockBegin
  2
block 35
 70
     0
 71
     0
 10
0.0
 20
0.0
 30
0.0
  3
block 35
  1

  0
POLYLINE
  5
148
330
144
100
AcDbEntity
  8
DIMLAY
 62
     7
420
 16777215
370
    35
100
AcDb2dPolyline
 66
     1
 10
0.0
 20
0.0
 30
0.0
  0
VERTEX
  5
149
330
148
100
AcDbEntity
  8
DIMLAY
 62
     7
420
 16777215
370
    35
100
AcDbVertex
100
AcDb2dVertex
 10
7.804721408420138
 20
9.569098578559027
 30
0.0
  0
VERTEX
  5
14A
330
148
100
AcDbEntity
  8
DIMLAY
 62
     7
420
 16777215
370
    35
100
AcDbVertex
100
AcDb2dVertex
 10
7.859619140625
 20
9.416463216145832
 30
0.0
  0
VERTEX
  5
14B
330
148
100
AcDbEntity
  8
DIMLAY
 62
     7
420
 16777215
370
    35
100
AcDbVertex
100
AcDb2dVertex
 10
7.758185492621528
 20
9.543043348524305
 30
0.0
  0
VERTEX
  5
14C
330
148
100
AcDbEntity
  8
DIMLAY
 62
     7
420
 16777215
370
    35
100
AcDbVertex
100
AcDb2dVertex
 10
7.804721408420138
 20
9.569098578559027
 30
0.0
  0
SEQEND
  5
14D
330
148
100
AcDbEntity
  8
DIMLAY
370
    35
  0
HATCH
  5
14E
330
144
100
AcDbEntity
  8
DIMLAY
 62
     7
420
 16777215
100
AcDbHatch
 10
0.0
 20
0.0
 30
0.0
210
0.0
220
0.0
230
1.0
  2
SOLID
 70
     1
 71
     0
 91
        1
 92
        1
 93
        3
 72
     1
 10
7.804721408420138
 20
9.569098578559027
 11
7.859619140625
 21
9.416463216145832
 72
     1
 10
7.859619140625
 20
9.416463216145832
 11
7.758185492621528
 21
9.543043348524305
 72
     1
 10
7.758185492621528
 20
9.543043348524305
 11
7.804721408420138
 21
9.569098578559027
 97
        0
 75
     2
 76
     1
 98
        0
  0
POLYLINE
  5
14F
330
144
100
AcDbEntity
  8
DIMLAY
 62
     7
420
 16777215
370
    25
100
AcDb2dPolyline
 66
     1
 10
0.0
 20
0.0
 30
0.0
  0
VERTEX
  5
150
330
14F
100
AcDbEntity
  8
DIMLAY
 62
     7
420
 16777215
370
    25
100
AcDbVertex
100
AcDb2dVertex
 10
7.781453450520833
 20
9.556070963541666
 30
0.0
  0
VERTEX
  5
151
330
14F
100
AcDbEntity
  8
DIMLAY
 62
     7
420
 16777215
370
    25
100
AcDbVertex
100
AcDb2dVertex
 10
7.317145453559028
 20
10.38529459635417
 30
0.0
  0
SEQEND
  5
152
330
14F
100
AcDbEntity
  8
DIMLAY
370
    25
  0
POLYLINE
  5
153
330
144
100
AcDbEntity
  8
DIMLAY
 62
     7
420
 16777215
370
    25
100
AcDb2dPolyline
 66
     1
 10
0.0
 20
0.0
 30
0.0
  0
VERTEX
  5
154
330
153
100
AcDbEntity
  8
DIMLAY
 62
     7
420
 16777215
370
    25
100
AcDbVertex
100
AcDb2dVertex
 10
7.317145453559028
 20
10.38529459635417
 30
0.0
  0
VERTEX
  5
155
330
153
100
AcDbEntity
  8
DIMLAY
 62
     7
420
 16777215
370
    25
100
AcDbVertex
100
AcDb2dVertex
 10
7.157145182291666
 20
10.38529459635417
 30
0.0
  0
SEQEND
  5
156
330
153
100
AcDbEntity
  8
DIMLAY
370
    25
  0
ENDBLK
  5
147
330
144
100
AcDbEntity
  8
0
100
AcDbBlockEnd
  0
BLOCK
  5
159
330
157
100
AcDbEntity
  8
0
100
AcDbBlockBegin
  2
block 36
 70
     0
 71
     0
 10
0.0
 20
0.0
 30
0.0
  3
block 36
  1

  0
MTEXT
  5
15B
330
157
100
AcDbEntity
  8
DIMLAY
 62
     7
420
 16777215
100
AcDbMText
 10
6.25714111328125
 20
9.18862575954861
 30
0.0
 40
0.160000008477105
 41
0.0
 71
     7
 72
     1
  1
\fMyriad Pro|b0|i0|c0|p34;\W1;0.880"
 73
     1
 44
1.0
  0
MTEXT
  5
15C
330
157
100
AcDbEntity
  8
DIMLAY
 62
     7
420
 16777215
100
AcDbMText
 10
6.089525010850694
 20
8.921969943576388
 30
0.0
 40
0.160000008477105
 41
0.0
 71
     7
 72
     1
  1
\fMyriad Pro|b0|i0|c0|p34;\W1;22.35mm
 73
     1
 44
1.0
  0
ENDBLK
  5
15A
330
157
100
AcDbEntity
  8
0
100
AcDbBlockEnd
  0
BLOCK
  5
15F
330
15D
100
AcDbEntity
  8
0
100
AcDbBlockBegin
  2
block 37
 70
     0
 71
     0
 10
0.0
 20
0.0
 30
0.0
  3
block 37
  1

  0
POLYLINE
  5
161
330
15D
100
AcDbEntity
  8
DIMLAY
 62
     7
420
 16777215
370
    35
100
AcDb2dPolyline
 66
     1
 10
0.0
 20
0.0
 30
0.0
  0
VERTEX
  5
162
330
161
100
AcDbEntity
  8
DIMLAY
 62
     7
420
 16777215
370
    35
100
AcDbVertex
100
AcDb2dVertex
 10
6.630479600694444
 20
8.535291883680555
 30
0.0
  0
VERTEX
  5
163
330
161
100
AcDbEntity
  8
DIMLAY
 62
     7
420
 16777215
370
    35
100
AcDbVertex
100
AcDb2dVertex
 10
6.683810763888888
 20
8.535291883680555
 30
0.0
  0
VERTEX
  5
164
330
161
100
AcDbEntity
  8
DIMLAY
 62
     7
420
 16777215
370
    35
100
AcDbVertex
100
AcDb2dVertex
 10
6.657145182291666
 20
8.695298936631945
 30
0.0
  0
VERTEX
  5
165
330
161
100
AcDbEntity
  8
DIMLAY
 62
     7
420
 16777215
370
    35
100
AcDbVertex
100
AcDb2dVertex
 10
6.630479600694444
 20
8.535291883680555
 30
0.0
  0
SEQEND
  5
166
330
161
100
AcDbEntity
  8
DIMLAY
370
    35
  0
HATCH
  5
167
330
15D
100
AcDbEntity
  8
DIMLAY
 62
     7
420
 16777215
100
AcDbHatch
 10
0.0
 20
0.0
 30
0.0
210
0.0
220
0.0
230
1.0
  2
SOLID
 70
     1
 71
     0
 91
        1
 92
        1
 93
        3
 72
     1
 10
6.630479600694444
 20
8.535291883680555
 11
6.683810763888888
 21
8.535291883680555
 72
     1
 10
6.683810763888888
 20
8.535291883680555
 11
6.657145182291666
 21
8.695298936631945
 72
     1
 10
6.657145182291666
 20
8.695298936631945
 11
6.630479600694444
 21
8.535291883680555
 97
        0
 75
     2
 76
     1
 98
        0
  0
ENDBLK
  5
160
330
15D
100
AcDbEntity
  8
0
100
AcDbBlockEnd
  0
BLOCK
  5
16A
330
168
100
AcDbEntity
  8
0
100
AcDbBlockBegin
  2
block 38
 70
     0
 71
     0
 10
0.0
 20
0.0
 30
0.0
  3
block 38
  1

  0
POLYLINE
  5
16C
330
168
100
AcDbEntity
  8
DIMLAY
 62
     7
420
 16777215
370
    35
100
AcDb2dPolyline
 66
     1
 10
0.0
 20
0.0
 30
0.0
  0
VERTEX
  5
16D
330
16C
100
AcDbEntity
  8
DIMLAY
 62
     7
420
 16777215
370
    35
100
AcDbVertex
100
AcDb2dVertex
 10
6.630479600694444
 20
9.735297309027777
 30
0.0
  0
VERTEX
  5
16E
330
16C
100
AcDbEntity
  8
DIMLAY
 62
     7
420
 16777215
370
    35
100
AcDbVertex
100
AcDb2dVertex
 10
6.683810763888888
 20
9.735297309027777
 30
0.0
  0
VERTEX
  5
16F
330
16C
100
AcDbEntity
  8
DIMLAY
 62
     7
420
 16777215
370
    35
100
AcDbVertex
100
AcDb2dVertex
 10
6.657145182291666
 20
9.575297037760416
 30
0.0
  0
VERTEX
  5
170
330
16C
100
AcDbEntity
  8
DIMLAY
 62
     7
420
 16777215
370
    35
100
AcDbVertex
100
AcDb2dVertex
 10
6.630479600694444
 20
9.735297309027777
 30
0.0
  0
SEQEND
  5
171
330
16C
100
AcDbEntity
  8
DIMLAY
370
    35
  0
HATCH
  5
172
330
168
100
AcDbEntity
  8
DIMLAY
 62
     7
420
 16777215
100
AcDbHatch
 10
0.0
 20
0.0
 30
0.0
210
0.0
220
0.0
230
1.0
  2
SOLID
 70
     1
 71
     0
 91
        1
 92
        1
 93
        3
 72
     1
 10
6.630479600694444
 20
9.735297309027777
 11
6.683810763888888
 21
9.735297309027777
 72
     1
 10
6.683810763888888
 20
9.735297309027777
 11
6.657145182291666
 21
9.575297037760416
 72
     1
 10
6.657145182291666
 20
9.575297037760416
 11
6.630479600694444
 21
9.735297309027777
 97
        0
 75
     2
 76
     1
 98
        0
  0
ENDBLK
  5
16B
330
168
100
AcDbEntity
  8
0
100
AcDbBlockEnd
  0
BLOCK
  5
175
330
173
100
AcDbEntity
  8
0
100
AcDbBlockBegin
  2
block 39
 70
     0
 71
     0
 10
0.0
 20
0.0
 30
0.0
  3
block 39
  1

  0
POLYLINE
  5
177
330
173
100
AcDbEntity
  8
DIMLAY
 62
     7
420
 16777215
370
    25
100
AcDb2dPolyline
 66
     1
 10
0.0
 20
0.0
 30
0.0
  0
VERTEX
  5
178
330
177
100
AcDbEntity
  8
DIMLAY
 62
     7
420
 16777215
370
    25
100
AcDbVertex
100
AcDb2dVertex
 10
7.265645345052083
 20
8.695298936631945
 30
0.0
  0
VERTEX
  5
179
330
177
100
AcDbEntity
  8
DIMLAY
 62
     7
420
 16777215
370
    25
100
AcDbVertex
100
AcDb2dVertex
 10
6.497144911024305
 20
8.695298936631945
 30
0.0
  0
SEQEND
  5
17A
330
177
100
AcDbEntity
  8
DIMLAY
370
    25
  0
ENDBLK
  5
176
330
173
100
AcDbEntity
  8
0
100
AcDbBlockEnd
  0
BLOCK
  5
17D
330
17B
100
AcDbEntity
  8
0
100
AcDbBlockBegin
  2
block 40
 70
     0
 71
     0
 10
0.0
 20
0.0
 30
0.0
  3
block 40
  1

  0
POLYLINE
  5
17F
330
17B
100
AcDbEntity
  8
DIMLAY
 62
     7
420
 16777215
370
    25
100
AcDb2dPolyline
 66
     1
 10
0.0
 20
0.0
 30
0.0
  0
VERTEX
  5
180
330
17F
100
AcDbEntity
  8
DIMLAY
 62
     7
420
 16777215
370
    25
100
AcDbVertex
100
AcDb2dVertex
 10
7.265645345052083
 20
9.575297037760416
 30
0.0
  0
VERTEX
  5
181
330
17F
100
AcDbEntity
  8
DIMLAY
 62
     7
420
 16777215
370
    25
100
AcDbVertex
100
AcDb2dVertex
 10
6.497144911024305
 20
9.575297037760416
 30
0.0
  0
SEQEND
  5
182
330
17F
100
AcDbEntity
  8
DIMLAY
370
    25
  0
ENDBLK
  5
17E
330
17B
100
AcDbEntity
  8
0
100
AcDbBlockEnd
  0
BLOCK
  5
185
330
183
100
AcDbEntity
  8
0
100
AcDbBlockBegin
  2
block 41
 70
     0
 71
     0
 10
0.0
 20
0.0
 30
0.0
  3
block 41
  1

  0
POLYLINE
  5
187
330
183
100
AcDbEntity
  8
DIMLAY
 62
     7
420
 16777215
370
    25
100
AcDb2dPolyline
 66
     1
 10
0.0
 20
0.0
 30
0.0
  0
VERTEX
  5
188
330
187
100
AcDbEntity
  8
DIMLAY
 62
     7
420
 16777215
370
    25
100
AcDbVertex
100
AcDb2dVertex
 10
6.657145182291666
 20
8.535291883680555
 30
0.0
  0
VERTEX
  5
189
330
187
100
AcDbEntity
  8
DIMLAY
 62
     7
420
 16777215
370
    25
100
AcDbVertex
100
AcDb2dVertex
 10
6.657145182291666
 20
8.375298394097221
 30
0.0
  0
SEQEND
  5
18A
330
187
100
AcDbEntity
  8
DIMLAY
370
    25
  0
ENDBLK
  5
186
330
183
100
AcDbEntity
  8
0
100
AcDbBlockEnd
  0
BLOCK
  5
18D
330
18B
100
AcDbEntity
  8
0
100
AcDbBlockBegin
  2
block 42
 70
     0
 71
     0
 10
0.0
 20
0.0
 30
0.0
  3
block 42
  1

  0
POLYLINE
  5
18F
330
18B
100
AcDbEntity
  8
DIMLAY
 62
     7
420
 16777215
370
    25
100
AcDb2dPolyline
 66
     1
 10
0.0
 20
0.0
 30
0.0
  0
VERTEX
  5
190
330
18F
100
AcDbEntity
  8
DIMLAY
 62
     7
420
 16777215
370
    25
100
AcDbVertex
100
AcDb2dVertex
 10
6.657145182291666
 20
9.735297309027777
 30
0.0
  0
VERTEX
  5
191
330
18F
100
AcDbEntity
  8
DIMLAY
 62
     7
420
 16777215
370
    25
100
AcDbVertex
100
AcDb2dVertex
 10
6.657145182291666
 20
9.895297580295138
 30
0.0
  0
SEQEND
  5
192
330
18F
100
AcDbEntity
  8
DIMLAY
370
    25
  0
ENDBLK
  5
18E
330
18B
100
AcDbEntity
  8
0
100
AcDbBlockEnd
  0
BLOCK
  5
195
330
193
100
AcDbEntity
  8
0
100
AcDbBlockBegin
  2
block 43
 70
     0
 71
     0
 10
0.0
 20
0.0
 30
0.0
  3
block 43
  1

  0
POLYLINE
  5
197
330
193
100
AcDbEntity
  8
DIMLAY
 62
     7
420
 16777215
370
    25
100
AcDb2dPolyline
 66
     1
 10
0.0
 20
0.0
 30
0.0
  0
VERTEX
  5
198
330
197
100
AcDbEntity
  8
DIMLAY
 62
     7
420
 16777215
370
    25
100
AcDbVertex
100
AcDb2dVertex
 10
7.532145182291666
 20
9.170294867621527
 30
0.0
  0
VERTEX
  5
199
330
197
100
AcDbEntity
  8
DIMLAY
 62
     7
420
 16777215
370
    25
100
AcDbVertex
100
AcDb2dVertex
 10
7.532145182291666
 20
9.410298665364582
 30
0.0
  0
SEQEND
  5
19A
330
197
100
AcDbEntity
  8
DIMLAY
370
    25
  0
ENDBLK
  5
196
330
193
100
AcDbEntity
  8
0
100
AcDbBlockEnd
  0
BLOCK
  5
19D
330
19B
100
AcDbEntity
  8
0
100
AcDbBlockBegin
  2
block 44
 70
     0
 71
     0
 10
0.0
 20
0.0
 30
0.0
  3
block 44
  1

  0
POLYLINE
  5
19F
330
19B
100
AcDbEntity
  8
DIMLAY
 62
     7
420
 16777215
370
    25
100
AcDb2dPolyline
 66
     1
 10
0.0
 20
0.0
 30
0.0
  0
VERTEX
  5
1A0
330
19F
100
AcDbEntity
  8
DIMLAY
 62
     7
420
 16777215
370
    25
100
AcDbVertex
100
AcDb2dVertex
 10
7.412143283420138
 20
8.980292426215277
 30
0.0
  0
VERTEX
  5
1A1
330
19F
100
AcDbEntity
  8
DIMLAY
 62
     7
420
 16777215
370
    25
100
AcDbVertex
100
AcDb2dVertex
 10
7.652140299479166
 20
8.980292426215277
 30
0.0
  0
SEQEND
  5
1A2
330
19F
100
AcDbEntity
  8
DIMLAY
370
    25
  0
ENDBLK
  5
19E
330
19B
100
AcDbEntity
  8
0
100
AcDbBlockEnd
  0
BLOCK
  5
1A5
330
1A3
100
AcDbEntity
  8
0
100
AcDbBlockBegin
  2
block 45
 70
     0
 71
     0
 10
0.0
 20
0.0
 30
0.0
  3
block 45
  1

  0
POLYLINE
  5
1A7
330
1A3
100
AcDbEntity
  8
DIMLAY
 62
     7
420
 16777215
370
    25
100
AcDb2dPolyline
 66
     1
 10
0.0
 20
0.0
 30
0.0
  0
VERTEX
  5
1A8
330
1A7
100
AcDbEntity
  8
DIMLAY
 62
     7
420
 16777215
370
    25
100
AcDbVertex
100
AcDb2dVertex
 10
7.532145182291666
 20
8.860297309027777
 30
0.0
  0
VERTEX
  5
1A9
330
1A7
100
AcDbEntity
  8
DIMLAY
 62
     7
420
 16777215
370
    25
100
AcDbVertex
100
AcDb2dVertex
 10
7.532145182291666
 20
9.100301106770832
 30
0.0
  0
SEQEND
  5
1AA
330
1A7
100
AcDbEntity
  8
DIMLAY
370
    25
  0
ENDBLK
  5
1A6
330
1A3
100
AcDbEntity
  8
0
100
AcDbBlockEnd
  0
BLOCK
  5
1AD
330
1AB
100
AcDbEntity
  8
0
100
AcDbBlockBegin
  2
block 46
 70
     0
 71
     0
 10
0.0
 20
0.0
 30
0.0
  3
block 46
  1

  0
POLYLINE
  5
1AF
330
1AB
100
AcDbEntity
  8
DIMLAY
 62
     7
420
 16777215
370
    25
100
AcDb2dPolyline
 66
     1
 10
0.0
 20
0.0
 30
0.0
  0
VERTEX
  5
1B0
330
1AF
100
AcDbEntity
  8
DIMLAY
 62
     7
420
 16777215
370
    25
100
AcDbVertex
100
AcDb2dVertex
 10
7.412143283420138
 20
9.290296766493055
 30
0.0
  0
VERTEX
  5
1B1
330
1AF
100
AcDbEntity
  8
DIMLAY
 62
     7
420
 16777215
370
    25
100
AcDbVertex
100
AcDb2dVertex
 10
7.652140299479166
 20
9.290296766493055
 30
0.0
  0
SEQEND
  5
1B2
330
1AF
100
AcDbEntity
  8
DIMLAY
370
    25
  0
ENDBLK
  5
1AE
330
1AB
100
AcDbEntity
  8
0
100
AcDbBlockEnd
  0
BLOCK
  5
1B5
330
1B3
100
AcDbEntity
  8
0
100
AcDbBlockBegin
  2
block 47
 70
     0
 71
     0
 10
0.0
 20
0.0
 30
0.0
  3
block 47
  1

  0
MTEXT
  5
1B7
330
1B3
100
AcDbEntity
  8
DIMLAY
 62
     7
420
 16777215
100
AcDbMText
 10
5.774997287326388
 20
10.31673177083333
 30
0.0
 40
0.160000008477105
 41
0.0
 71
     7
 72
     1
  1
\fMyriad Pro|b0|i0|c0|p34;\W1;#6 SCREW
 73
     1
 44
1.0
  0
ENDBLK
  5
1B6
330
1B3
100
AcDbEntity
  8
0
100
AcDbBlockEnd
  0
BLOCK
  5
1BA
330
1B8
100
AcDbEntity
  8
0
100
AcDbBlockBegin
  2
block 48
 70
     0
 71
     0
 10
0.0
 20
0.0
 30
0.0
  3
block 48
  1

  0
POLYLINE
  5
1BC
330
1B8
100
AcDbEntity
  8
DIMLAY
 62
     7
420
 16777215
370
    35
100
AcDb2dPolyline
 66
     1
 10
0.0
 20
0.0
 30
0.0
  0
VERTEX
  5
1BD
330
1BC
100
AcDbEntity
  8
DIMLAY
 62
     7
420
 16777215
370
    35
100
AcDbVertex
100
AcDb2dVertex
 10
9.56338161892361
 20
9.481207953559027
 30
0.0
  0
VERTEX
  5
1BE
330
1BC
100
AcDbEntity
  8
DIMLAY
 62
     7
420
 16777215
370
    35
100
AcDbVertex
100
AcDb2dVertex
 10
9.459757486979166
 20
9.356418185763888
 30
0.0
  0
VERTEX
  5
1BF
330
1BC
100
AcDbEntity
  8
DIMLAY
 62
     7
420
 16777215
370
    35
100
AcDbVertex
100
AcDb2dVertex
 10
9.517306857638888
 20
9.508070203993055
 30
0.0
  0
VERTEX
  5
1C0
330
1BC
100
AcDbEntity
  8
DIMLAY
 62
     7
420
 16777215
370
    35
100
AcDbVertex
100
AcDb2dVertex
 10
9.56338161892361
 20
9.481207953559027
 30
0.0
  0
SEQEND
  5
1C1
330
1BC
100
AcDbEntity
  8
DIMLAY
370
    35
  0
HATCH
  5
1C2
330
1B8
100
AcDbEntity
  8
DIMLAY
 62
     7
420
 16777215
100
AcDbHatch
 10
0.0
 20
0.0
 30
0.0
210
0.0
220
0.0
230
1.0
  2
SOLID
 70
     1
 71
     0
 91
        1
 92
        1
 93
        3
 72
     1
 10
9.56338161892361
 20
9.481207953559027
 11
9.459757486979166
 21
9.356418185763888
 72
     1
 10
9.459757486979166
 20
9.356418185763888
 11
9.517306857638888
 21
9.508070203993055
 72
     1
 10
9.517306857638888
 20
9.508070203993055
 11
9.56338161892361
 21
9.481207953559027
 97
        0
 75
     2
 76
     1
 98
        0
  0
POLYLINE
  5
1C3
330
1B8
100
AcDbEntity
  8
DIMLAY
 62
     7
420
 16777215
370
    25
100
AcDb2dPolyline
 66
     1
 10
0.0
 20
0.0
 30
0.0
  0
VERTEX
  5
1C4
330
1C3
100
AcDbEntity
  8
DIMLAY
 62
     7
420
 16777215
370
    25
100
AcDbVertex
100
AcDb2dVertex
 10
9.540351019965277
 20
9.494642469618055
 30
0.0
  0
VERTEX
  5
1C5
330
1C3
100
AcDbEntity
  8
DIMLAY
 62
     7
420
 16777215
370
    25
100
AcDbVertex
100
AcDb2dVertex
 10
10.05963812934028
 20
10.38529459635417
 30
0.0
  0
SEQEND
  5
1C6
330
1C3
100
AcDbEntity
  8
DIMLAY
370
    25
  0
POLYLINE
  5
1C7
330
1B8
100
AcDbEntity
  8
DIMLAY
 62
     7
420
 16777215
370
    25
100
AcDb2dPolyline
 66
     1
 10
0.0
 20
0.0
 30
0.0
  0
VERTEX
  5
1C8
330
1C7
100
AcDbEntity
  8
DIMLAY
 62
     7
420
 16777215
370
    25
100
AcDbVertex
100
AcDb2dVertex
 10
10.05963812934028
 20
10.38529459635417
 30
0.0
  0
VERTEX
  5
1C9
330
1C7
100
AcDbEntity
  8
DIMLAY
 62
     7
420
 16777215
370
    25
100
AcDbVertex
100
AcDb2dVertex
 10
10.21964518229167
 20
10.38529459635417
 30
0.0
  0
SEQEND
  5
1CA
330
1C7
100
AcDbEntity
  8
DIMLAY
370
    25
  0
ENDBLK
  5
1BB
330
1B8
100
AcDbEntity
  8
0
100
AcDbBlockEnd
  0
BLOCK
  5
1CD
330
1CB
100
AcDbEntity
  8
0
100
AcDbBlockBegin
  2
block 49
 70
     0
 71
     0
 10
0.0
 20
0.0
 30
0.0
  3
block 49
  1

  0
MTEXT
  5
1CF
330
1CB
100
AcDbEntity
  8
DIMLAY
 62
     7
420
 16777215
100
AcDbMText
 10
9.892388237847221
 20
8.413628472222221
 30
0.0
 40
0.160000008477105
 41
0.0
 71
     7
 72
     1
  1
\fMyriad Pro|b0|i0|c0|p34;\W1;0.310"
 73
     1
 44
1.0
  0
MTEXT
  5
1D0
330
1CB
100
AcDbEntity
  8
DIMLAY
 62
     7
420
 16777215
100
AcDbMText
 10
9.800944010416666
 20
8.146959092881945
 30
0.0
 40
0.160000008477105
 41
0.0
 71
     7
 72
     1
  1
\fMyriad Pro|b0|i0|c0|p34;\W1;7.87mm
 73
     1
 44
1.0
  0
ENDBLK
  5
1CE
330
1CB
100
AcDbEntity
  8
0
100
AcDbBlockEnd
  0
BLOCK
  5
1D3
330
1D1
100
AcDbEntity
  8
0
100
AcDbBlockBegin
  2
block 50
 70
     0
 71
     0
 10
0.0
 20
0.0
 30
0.0
  3
block 50
  1

  0
POLYLINE
  5
1D5
330
1D1
100
AcDbEntity
  8
DIMLAY
 62
     7
420
 16777215
370
    25
100
AcDb2dPolyline
 66
     1
 10
0.0
 20
0.0
 30
0.0
  0
VERTEX
  5
1D6
330
1D5
100
AcDbEntity
  8
DIMLAY
 62
     7
420
 16777215
370
    25
100
AcDbVertex
100
AcDb2dVertex
 10
9.653143988715277
 20
9.290296766493055
 30
0.0
  0
VERTEX
  5
1D7
330
1D5
100
AcDbEntity
  8
DIMLAY
 62
     7
420
 16777215
370
    25
100
AcDbVertex
100
AcDb2dVertex
 10
10.442138671875
 20
9.290296766493055
 30
0.0
  0
SEQEND
  5
1D8
330
1D5
100
AcDbEntity
  8
DIMLAY
370
    25
  0
ENDBLK
  5
1D4
330
1D1
100
AcDbEntity
  8
0
100
AcDbBlockEnd
  0
BLOCK
  5
1DB
330
1D9
100
AcDbEntity
  8
0
100
AcDbBlockBegin
  2
block 51
 70
     0
 71
     0
 10
0.0
 20
0.0
 30
0.0
  3
block 51
  1

  0
POLYLINE
  5
1DD
330
1D9
100
AcDbEntity
  8
DIMLAY
 62
     7
420
 16777215
370
    25
100
AcDb2dPolyline
 66
     1
 10
0.0
 20
0.0
 30
0.0
  0
VERTEX
  5
1DE
330
1DD
100
AcDbEntity
  8
DIMLAY
 62
     7
420
 16777215
370
    25
100
AcDbVertex
100
AcDb2dVertex
 10
9.653143988715277
 20
8.980292426215277
 30
0.0
  0
VERTEX
  5
1DF
330
1DD
100
AcDbEntity
  8
DIMLAY
 62
     7
420
 16777215
370
    25
100
AcDbVertex
100
AcDb2dVertex
 10
10.442138671875
 20
8.980292426215277
 30
0.0
  0
SEQEND
  5
1E0
330
1DD
100
AcDbEntity
  8
DIMLAY
370
    25
  0
ENDBLK
  5
1DC
330
1D9
100
AcDbEntity
  8
0
100
AcDbBlockEnd
  0
BLOCK
  5
1E3
330
1E1
100
AcDbEntity
  8
0
100
AcDbBlockBegin
  2
block 52
 70
     0
 71
     0
 10
0.0
 20
0.0
 30
0.0
  3
block 52
  1

  0
POLYLINE
  5
1E5
330
1E1
100
AcDbEntity
  8
DIMLAY
 62
     7
420
 16777215
370
    25
100
AcDb2dPolyline
 66
     1
 10
0.0
 20
0.0
 30
0.0
  0
VERTEX
  5
1E6
330
1E5
100
AcDbEntity
  8
DIMLAY
 62
     7
420
 16777215
370
    25
100
AcDbVertex
100
AcDb2dVertex
 10
9.407145182291666
 20
9.170294867621527
 30
0.0
  0
VERTEX
  5
1E7
330
1E5
100
AcDbEntity
  8
DIMLAY
 62
     7
420
 16777215
370
    25
100
AcDbVertex
100
AcDb2dVertex
 10
9.407145182291666
 20
9.410298665364582
 30
0.0
  0
SEQEND
  5
1E8
330
1E5
100
AcDbEntity
  8
DIMLAY
370
    25
  0
ENDBLK
  5
1E4
330
1E1
100
AcDbEntity
  8
0
100
AcDbBlockEnd
  0
BLOCK
  5
1EB
330
1E9
100
AcDbEntity
  8
0
100
AcDbBlockBegin
  2
block 53
 70
     0
 71
     0
 10
0.0
 20
0.0
 30
0.0
  3
block 53
  1

  0
POLYLINE
  5
1ED
330
1E9
100
AcDbEntity
  8
DIMLAY
 62
     7
420
 16777215
370
    25
100
AcDb2dPolyline
 66
     1
 10
0.0
 20
0.0
 30
0.0
  0
VERTEX
  5
1EE
330
1ED
100
AcDbEntity
  8
DIMLAY
 62
     7
420
 16777215
370
    25
100
AcDbVertex
100
AcDb2dVertex
 10
9.28713650173611
 20
8.980292426215277
 30
0.0
  0
VERTEX
  5
1EF
330
1ED
100
AcDbEntity
  8
DIMLAY
 62
     7
420
 16777215
370
    25
100
AcDbVertex
100
AcDb2dVertex
 10
9.527140299479166
 20
8.980292426215277
 30
0.0
  0
SEQEND
  5
1F0
330
1ED
100
AcDbEntity
  8
DIMLAY
370
    25
  0
ENDBLK
  5
1EC
330
1E9
100
AcDbEntity
  8
0
100
AcDbBlockEnd
  0
BLOCK
  5
1F3
330
1F1
100
AcDbEntity
  8
0
100
AcDbBlockBegin
  2
block 54
 70
     0
 71
     0
 10
0.0
 20
0.0
 30
0.0
  3
block 54
  1

  0
POLYLINE
  5
1F5
330
1F1
100
AcDbEntity
  8
DIMLAY
 62
     7
420
 16777215
370
    25
100
AcDb2dPolyline
 66
     1
 10
0.0
 20
0.0
 30
0.0
  0
VERTEX
  5
1F6
330
1F5
100
AcDbEntity
  8
DIMLAY
 62
     7
420
 16777215
370
    25
100
AcDbVertex
100
AcDb2dVertex
 10
9.407145182291666
 20
8.860297309027777
 30
0.0
  0
VERTEX
  5
1F7
330
1F5
100
AcDbEntity
  8
DIMLAY
 62
     7
420
 16777215
370
    25
100
AcDbVertex
100
AcDb2dVertex
 10
9.407145182291666
 20
9.100301106770832
 30
0.0
  0
SEQEND
  5
1F8
330
1F5
100
AcDbEntity
  8
DIMLAY
370
    25
  0
ENDBLK
  5
1F4
330
1F1
100
AcDbEntity
  8
0
100
AcDbBlockEnd
  0
BLOCK
  5
1FB
330
1F9
100
AcDbEntity
  8
0
100
AcDbBlockBegin
  2
block 55
 70
     0
 71
     0
 10
0.0
 20
0.0
 30
0.0
  3
block 55
  1

  0
POLYLINE
  5
1FD
330
1F9
100
AcDbEntity
  8
DIMLAY
 62
     7
420
 16777215
370
    25
100
AcDb2dPolyline
 66
     1
 10
0.0
 20
0.0
 30
0.0
  0
VERTEX
  5
1FE
330
1FD
100
AcDbEntity
  8
DIMLAY
 62
     7
420
 16777215
370
    25
100
AcDbVertex
100
AcDb2dVertex
 10
10.28214518229167
 20
8.820298936631945
 30
0.0
  0
VERTEX
  5
1FF
330
1FD
100
AcDbEntity
  8
DIMLAY
 62
     7
420
 16777215
370
    25
100
AcDbVertex
100
AcDb2dVertex
 10
10.28214518229167
 20
8.660291883680555
 30
0.0
  0
SEQEND
  5
200
330
1FD
100
AcDbEntity
  8
DIMLAY
370
    25
  0
ENDBLK
  5
1FC
330
1F9
100
AcDbEntity
  8
0
100
AcDbBlockEnd
  0
BLOCK
  5
203
330
201
100
AcDbEntity
  8
0
100
AcDbBlockBegin
  2
block 56
 70
     0
 71
     0
 10
0.0
 20
0.0
 30
0.0
  3
block 56
  1

  0
POLYLINE
  5
205
330
201
100
AcDbEntity
  8
DIMLAY
 62
     7
420
 16777215
370
    35
100
AcDb2dPolyline
 66
     1
 10
0.0
 20
0.0
 30
0.0
  0
VERTEX
  5
206
330
205
100
AcDbEntity
  8
DIMLAY
 62
     7
420
 16777215
370
    35
100
AcDbVertex
100
AcDb2dVertex
 10
10.25547960069444
 20
8.820298936631945
 30
0.0
  0
VERTEX
  5
207
330
205
100
AcDbEntity
  8
DIMLAY
 62
     7
420
 16777215
370
    35
100
AcDbVertex
100
AcDb2dVertex
 10
10.30881076388889
 20
8.820298936631945
 30
0.0
  0
VERTEX
  5
208
330
205
100
AcDbEntity
  8
DIMLAY
 62
     7
420
 16777215
370
    35
100
AcDbVertex
100
AcDb2dVertex
 10
10.28214518229167
 20
8.980292426215277
 30
0.0
  0
VERTEX
  5
209
330
205
100
AcDbEntity
  8
DIMLAY
 62
     7
420
 16777215
370
    35
100
AcDbVertex
100
AcDb2dVertex
 10
10.25547960069444
 20
8.820298936631945
 30
0.0
  0
SEQEND
  5
20A
330
205
100
AcDbEntity
  8
DIMLAY
370
    35
  0
HATCH
  5
20B
330
201
100
AcDbEntity
  8
DIMLAY
 62
     7
420
 16777215
100
AcDbHatch
 10
0.0
 20
0.0
 30
0.0
210
0.0
220
0.0
230
1.0
  2
SOLID
 70
     1
 71
     0
 91
        1
 92
        1
 93
        3
 72
     1
 10
10.25547960069444
 20
8.820298936631945
 11
10.30881076388889
 21
8.820298936631945
 72
     1
 10
10.30881076388889
 20
8.820298936631945
 11
10.28214518229167
 21
8.980292426215277
 72
     1
 10
10.28214518229167
 20
8.980292426215277
 11
10.25547960069444
 21
8.820298936631945
 97
        0
 75
     2
 76
     1
 98
        0
  0
ENDBLK
  5
204
330
201
100
AcDbEntity
  8
0
100
AcDbBlockEnd
  0
BLOCK
  5
20E
330
20C
100
AcDbEntity
  8
0
100
AcDbBlockBegin
  2
block 57
 70
     0
 71
     0
 10
0.0
 20
0.0
 30
0.0
  3
block 57
  1

  0
POLYLINE
  5
210
330
20C
100
AcDbEntity
  8
DIMLAY
 62
     7
420
 16777215
370
    25
100
AcDb2dPolyline
 66
     1
 10
0.0
 20
0.0
 30
0.0
  0
VERTEX
  5
211
330
210
100
AcDbEntity
  8
DIMLAY
 62
     7
420
 16777215
370
    25
100
AcDbVertex
100
AcDb2dVertex
 10
9.28713650173611
 20
9.290296766493055
 30
0.0
  0
VERTEX
  5
212
330
210
100
AcDbEntity
  8
DIMLAY
 62
     7
420
 16777215
370
    25
100
AcDbVertex
100
AcDb2dVertex
 10
9.527140299479166
 20
9.290296766493055
 30
0.0
  0
SEQEND
  5
213
330
210
100
AcDbEntity
  8
DIMLAY
370
    25
  0
ENDBLK
  5
20F
330
20C
100
AcDbEntity
  8
0
100
AcDbBlockEnd
  0
BLOCK
  5
216
330
214
100
AcDbEntity
  8
0
100
AcDbBlockBegin
  2
block 58
 70
     0
 71
     0
 10
0.0
 20
0.0
 30
0.0
  3
block 58
  1

  0
POLYLINE
  5
218
330
214
100
AcDbEntity
  8
DIMLAY
 62
     7
420
 16777215
370
    35
100
AcDb2dPolyline
 66
     1
 10
0.0
 20
0.0
 30
0.0
  0
VERTEX
  5
219
330
218
100
AcDbEntity
  8
DIMLAY
 62
     7
420
 16777215
370
    35
100
AcDbVertex
100
AcDb2dVertex
 10
10.25547960069444
 20
9.450297037760416
 30
0.0
  0
VERTEX
  5
21A
330
218
100
AcDbEntity
  8
DIMLAY
 62
     7
420
 16777215
370
    35
100
AcDbVertex
100
AcDb2dVertex
 10
10.30881076388889
 20
9.450297037760416
 30
0.0
  0
VERTEX
  5
21B
330
218
100
AcDbEntity
  8
DIMLAY
 62
     7
420
 16777215
370
    35
100
AcDbVertex
100
AcDb2dVertex
 10
10.28214518229167
 20
9.290296766493055
 30
0.0
  0
VERTEX
  5
21C
330
218
100
AcDbEntity
  8
DIMLAY
 62
     7
420
 16777215
370
    35
100
AcDbVertex
100
AcDb2dVertex
 10
10.25547960069444
 20
9.450297037760416
 30
0.0
  0
SEQEND
  5
21D
330
218
100
AcDbEntity
  8
DIMLAY
370
    35
  0
HATCH
  5
21E
330
214
100
AcDbEntity
  8
DIMLAY
 62
     7
420
 16777215
100
AcDbHatch
 10
0.0
 20
0.0
 30
0.0
210
0.0
220
0.0
230
1.0
  2
SOLID
 70
     1
 71
     0
 91
        1
 92
        1
 93
        3
 72
     1
 10
10.25547960069444
 20
9.450297037760416
 11
10.30881076388889
 21
9.450297037760416
 72
     1
 10
10.30881076388889
 20
9.450297037760416
 11
10.28214518229167
 21
9.290296766493055
 72
     1
 10
10.28214518229167
 20
9.290296766493055
 11
10.25547960069444
 21
9.450297037760416
 97
        0
 75
     2
 76
     1
 98
        0
  0
ENDBLK
  5
217
330
214
100
AcDbEntity
  8
0
100
AcDbBlockEnd
  0
BLOCK
  5
221
330
21F
100
AcDbEntity
  8
0
100
AcDbBlockBegin
  2
block 59
 70
     0
 71
     0
 10
0.0
 20
0.0
 30
0.0
  3
block 59
  1

  0
POLYLINE
  5
223
330
21F
100
AcDbEntity
  8
DIMLAY
 62
     7
420
 16777215
370
    25
100
AcDb2dPolyline
 66
     1
 10
0.0
 20
0.0
 30
0.0
  0
VERTEX
  5
224
330
223
100
AcDbEntity
  8
DIMLAY
 62
     7
420
 16777215
370
    25
100
AcDbVertex
100
AcDb2dVertex
 10
10.28214518229167
 20
9.450297037760416
 30
0.0
  0
VERTEX
  5
225
330
223
100
AcDbEntity
  8
DIMLAY
 62
     7
420
 16777215
370
    25
100
AcDbVertex
100
AcDb2dVertex
 10
10.28214518229167
 20
9.610297309027777
 30
0.0
  0
SEQEND
  5
226
330
223
100
AcDbEntity
  8
DIMLAY
370
    25
  0
ENDBLK
  5
222
330
21F
100
AcDbEntity
  8
0
100
AcDbBlockEnd
  0
BLOCK
  5
229
330
227
100
AcDbEntity
  8
0
100
AcDbBlockBegin
  2
block 60
 70
     0
 71
     0
 10
0.0
 20
0.0
 30
0.0
  3
block 60
  1

  0
MTEXT
  5
22B
330
227
100
AcDbEntity
  8
DIMLAY
 62
     7
420
 16777215
100
AcDbMText
 10
10.25166829427083
 20
10.48053656684028
 30
0.0
 40
0.160000008477105
 41
0.0
 71
     7
 72
     1
  1
\fMyriad Pro|b0|i0|c0|p34;\W1;MOUNTING HOLE
 73
     1
 44
1.0
  0
MTEXT
  5
22C
330
227
100
AcDbEntity
  8
DIMLAY
 62
     7
420
 16777215
100
AcDbMText
 10
10.25166829427083
 20
10.18339029947917
 30
0.0
 40
0.160000008477105
 41
0.0
 71
     7
 72
     1
  1
\fMyriad Pro|b0|i0|c0|p34;\W1;FOR #6 SCREW
 73
     1
 44
1.0
  0
ENDBLK
  5
22A
330
227
100
AcDbEntity
  8
0
100
AcDbBlockEnd
  0
BLOCK
  5
230
330
22E
100
AcDbEntity
  8
0
100
AcDbBlockBegin
  2
block 61
 70
     0
 71
     0
 10
0.0
 20
0.0
 30
0.0
  3
block 61
  1

  0
POLYLINE
  5
232
330
22E
100
AcDbEntity
  8
PART
 62
     7
420
 16777215
370
    25
100
AcDb2dPolyline
 66
     1
 10
0.0
 20
0.0
 30
0.0
  0
VERTEX
  5
233
330
232
100
AcDbEntity
  8
PART
 62
     7
420
 16777215
370
    25
100
AcDbVertex
100
AcDb2dVertex
 10
7.391642252604166
 20
8.695298936631945
 30
0.0
  0
VERTEX
  5
234
330
232
100
AcDbEntity
  8
PART
 62
     7
420
 16777215
370
    25
100
AcDbVertex
100
AcDb2dVertex
 10
9.547648111979166
 20
8.695298936631945
 30
0.0
  0
VERTEX
  5
235
330
232
100
AcDbEntity
  8
PART
 62
     7
420
 16777215
370
    25
100
AcDbVertex
100
AcDb2dVertex
 10
9.547648111979166
 20
9.575297037760416
 30
0.0
  0
VERTEX
  5
236
330
232
100
AcDbEntity
  8
PART
 62
     7
420
 16777215
370
    25
100
AcDbVertex
100
AcDb2dVertex
 10
7.391642252604166
 20
9.575297037760416
 30
0.0
  0
VERTEX
  5
237
330
232
100
AcDbEntity
  8
PART
 62
     7
420
 16777215
370
    25
100
AcDbVertex
100
AcDb2dVertex
 10
7.391642252604166
 20
8.695298936631945
 30
0.0
  0
SEQEND
  5
238
330
232
100
AcDbEntity
  8
PART
370
    25
  0
ENDBLK
  5
231
330
22E
100
AcDbEntity
  8
0
100
AcDbBlockEnd
  0
BLOCK
  5
23B
330
239
100
AcDbEntity
  8
0
100
AcDbBlockBegin
  2
block 62
 70
     0
 71
     0
 10
0.0
 20
0.0
 30
0.0
  3
block 62
  1

  0
POLYLINE
  5
23D
330
239
100
AcDbEntity
  8
PART
 62
     7
420
 16777215
370
    25
100
AcDb2dPolyline
 66
     1
 10
0.0
 20
0.0
 30
0.0
  0
VERTEX
  5
23E
330
23D
100
AcDbEntity
  8
PART
 62
     7
420
 16777215
370
    25
100
AcDbVertex
100
AcDb2dVertex
 10
8.50714111328125
 20
8.855292426215277
 30
0.0
  0
VERTEX
  5
23F
330
23D
100
AcDbEntity
  8
PART
 62
     7
420
 16777215
370
    25
100
AcDbVertex
100
AcDb2dVertex
 10
8.618157280815971
 20
8.855292426215277
 30
0.0
  0
SEQEND
  5
240
330
23D
100
AcDbEntity
  8
PART
370
    25
  0
ENDBLK
  5
23C
330
239
100
AcDbEntity
  8
0
100
AcDbBlockEnd
  0
BLOCK
  5
243
330
241
100
AcDbEntity
  8
0
100
AcDbBlockBegin
  2
block 63
 70
     0
 71
     0
 10
0.0
 20
0.0
 30
0.0
  3
block 63
  1

  0
POLYLINE
  5
245
330
241
100
AcDbEntity
  8
PART
 62
     7
420
 16777215
370
    25
100
AcDb2dPolyline
 66
     1
 10
0.0
 20
0.0
 30
0.0
  0
VERTEX
  5
246
330
245
100
AcDbEntity
  8
PART
 62
     7
420
 16777215
370
    25
100
AcDbVertex
100
AcDb2dVertex
 10
8.50714111328125
 20
9.415296766493055
 30
0.0
  0
VERTEX
  5
247
330
245
100
AcDbEntity
  8
PART
 62
     7
420
 16777215
370
    25
100
AcDbVertex
100
AcDb2dVertex
 10
8.618157280815971
 20
9.415296766493055
 30
0.0
  0
SEQEND
  5
248
330
245
100
AcDbEntity
  8
PART
370
    25
  0
ENDBLK
  5
244
330
241
100
AcDbEntity
  8
0
100
AcDbBlockEnd
  0
BLOCK
  5
24B
330
249
100
AcDbEntity
  8
0
100
AcDbBlockBegin
  2
block 64
 70
     0
 71
     0
 10
0.0
 20
0.0
 30
0.0
  3
block 64
  1

  0
SPLINE
  5
24D
330
249
100
AcDbEntity
  8
PART
 62
     7
420
 16777215
370
    25
100
AcDbSpline
210
0.0
220
0.0
230
1.0
 70
    11
 71
     3
 72
    20
 73
    16
 74
     0
 42
0.0000000001
 43
0.0000000001
 40
0.0
 40
0.0
 40
0.0
 40
0.0
 40
1.0
 40
1.0
 40
1.0
 40
2.0
 40
2.0
 40
2.0
 40
3.0
 40
3.0
 40
3.0
 40
4.0
 40
4.0
 40
4.0
 40
5.0
 40
5.0
 40
5.0
 40
5.0
 10
7.616644965277778
 20
9.290296766493055
 30
0.0
 10
7.616644965277778
 20
9.336968315972221
 30
0.0
 10
7.578809950086805
 20
9.374796549479166
 30
0.0
 10
7.532145182291666
 20
9.374796549479166
 30
0.0
 10
7.4854736328125
 20
9.374796549479166
 30
0.0
 10
7.447645399305555
 20
9.336968315972221
 30
0.0
 10
7.447645399305555
 20
9.290296766493055
 30
0.0
 10
7.447645399305555
 20
9.243631998697916
 30
0.0
 10
7.4854736328125
 20
9.205796983506945
 30
0.0
 10
7.532145182291666
 20
9.205796983506945
 30
0.0
 10
7.578809950086805
 20
9.205796983506945
 30
0.0
 10
7.616644965277778
 20
9.243631998697916
 30
0.0
 10
7.616644965277778
 20
9.290296766493055
 30
0.0
 10
7.616644965277778
 20
9.290296766493055
 30
0.0
 10
7.616644965277778
 20
9.290296766493055
 30
0.0
 10
7.616644965277778
 20
9.290296766493055
 30
0.0
  0
ENDBLK
  5
24C
330
249
100
AcDbEntity
  8
0
100
AcDbBlockEnd
  0
BLOCK
  5
250
330
24E
100
AcDbEntity
  8
0
100
AcDbBlockBegin
  2
block 65
 70
     0
 71
     0
 10
0.0
 20
0.0
 30
0.0
  3
block 65
  1

  0
SPLINE
  5
252
330
24E
100
AcDbEntity
  8
PART
 62
     7
420
 16777215
370
    25
100
AcDbSpline
210
0.0
220
0.0
230
1.0
 70
    11
 71
     3
 72
    23
 73
    19
 74
     0
 42
0.0000000001
 43
0.0000000001
 40
0.0
 40
0.0
 40
0.0
 40
0.0
 40
1.0
 40
1.0
 40
1.0
 40
2.0
 40
2.0
 40
2.0
 40
3.0
 40
3.0
 40
3.0
 40
4.0
 40
4.0
 40
4.0
 40
5.0
 40
5.0
 40
5.0
 40
6.0
 40
6.0
 40
6.0
 40
6.0
 10
7.682142469618055
 20
8.732801649305555
 30
0.0
 10
7.682142469618055
 20
8.712090386284721
 30
0.0
 10
7.698933919270833
 20
8.695298936631945
 30
0.0
 10
7.719645182291666
 20
8.695298936631945
 30
0.0
 10
7.7403564453125
 20
8.695298936631945
 30
0.0
 10
7.75714111328125
 20
8.712090386284721
 30
0.0
 10
7.75714111328125
 20
8.732801649305555
 30
0.0
 10
7.75714111328125
 20
8.732801649305555
 30
0.0
 10
7.75714111328125
 20
9.537801106770832
 30
0.0
 10
7.75714111328125
 20
9.537801106770832
 30
0.0
 10
7.75714111328125
 20
9.558505588107638
 30
0.0
 10
7.7403564453125
 20
9.575297037760416
 30
0.0
 10
7.719645182291666
 20
9.575297037760416
 30
0.0
 10
7.698933919270833
 20
9.575297037760416
 30
0.0
 10
7.682142469618055
 20
9.558505588107638
 30
0.0
 10
7.682142469618055
 20
9.537801106770832
 30
0.0
 10
7.682142469618055
 20
9.537801106770832
 30
0.0
 10
7.682142469618055
 20
8.732801649305555
 30
0.0
 10
7.682142469618055
 20
8.732801649305555
 30
0.0
  0
ENDBLK
  5
251
330
24E
100
AcDbEntity
  8
0
100
AcDbBlockEnd
  0
BLOCK
  5
255
330
253
100
AcDbEntity
  8
0
100
AcDbBlockBegin
  2
block 66
 70
     0
 71
     0
 10
0.0
 20
0.0
 30
0.0
  3
block 66
  1

  0
SPLINE
  5
257
330
253
100
AcDbEntity
  8
PART
 62
     7
420
 16777215
370
    25
100
AcDbSpline
210
0.0
220
0.0
230
1.0
 70
    11
 71
     3
 72
    23
 73
    19
 74
     0
 42
0.0000000001
 43
0.0000000001
 40
0.0
 40
0.0
 40
0.0
 40
0.0
 40
1.0
 40
1.0
 40
1.0
 40
2.0
 40
2.0
 40
2.0
 40
3.0
 40
3.0
 40
3.0
 40
4.0
 40
4.0
 40
4.0
 40
5.0
 40
5.0
 40
5.0
 40
6.0
 40
6.0
 40
6.0
 40
6.0
 10
8.432142469618055
 20
8.732801649305555
 30
0.0
 10
8.432142469618055
 20
8.712090386284721
 30
0.0
 10
8.448933919270832
 20
8.695298936631945
 30
0.0
 10
8.469645182291666
 20
8.695298936631945
 30
0.0
 10
8.4903564453125
 20
8.695298936631945
 30
0.0
 10
8.50714111328125
 20
8.712090386284721
 30
0.0
 10
8.50714111328125
 20
8.732801649305555
 30
0.0
 10
8.50714111328125
 20
8.732801649305555
 30
0.0
 10
8.50714111328125
 20
9.537801106770832
 30
0.0
 10
8.50714111328125
 20
9.537801106770832
 30
0.0
 10
8.50714111328125
 20
9.558505588107638
 30
0.0
 10
8.4903564453125
 20
9.575297037760416
 30
0.0
 10
8.469645182291666
 20
9.575297037760416
 30
0.0
 10
8.448933919270832
 20
9.575297037760416
 30
0.0
 10
8.432142469618055
 20
9.558505588107638
 30
0.0
 10
8.432142469618055
 20
9.537801106770832
 30
0.0
 10
8.432142469618055
 20
9.537801106770832
 30
0.0
 10
8.432142469618055
 20
8.732801649305555
 30
0.0
 10
8.432142469618055
 20
8.732801649305555
 30
0.0
  0
ENDBLK
  5
256
330
253
100
AcDbEntity
  8
0
100
AcDbBlockEnd
  0
BLOCK
  5
25A
330
258
100
AcDbEntity
  8
0
100
AcDbBlockBegin
  2
block 67
 70
     0
 71
     0
 10
0.0
 20
0.0
 30
0.0
  3
block 67
  1

  0
SPLINE
  5
25C
330
258
100
AcDbEntity
  8
PART
 62
     7
420
 16777215
370
    25
100
AcDbSpline
210
0.0
220
0.0
230
1.0
 70
    11
 71
     3
 72
    23
 73
    19
 74
     0
 42
0.0000000001
 43
0.0000000001
 40
0.0
 40
0.0
 40
0.0
 40
0.0
 40
1.0
 40
1.0
 40
1.0
 40
2.0
 40
2.0
 40
2.0
 40
3.0
 40
3.0
 40
3.0
 40
4.0
 40
4.0
 40
4.0
 40
5.0
 40
5.0
 40
5.0
 40
6.0
 40
6.0
 40
6.0
 40
6.0
 10
8.057142469618055
 20
8.732801649305555
 30
0.0
 10
8.057142469618055
 20
8.712090386284721
 30
0.0
 10
8.073933919270832
 20
8.695298936631945
 30
0.0
 10
8.094645182291666
 20
8.695298936631945
 30
0.0
 10
8.1153564453125
 20
8.695298936631945
 30
0.0
 10
8.13214111328125
 20
8.712090386284721
 30
0.0
 10
8.13214111328125
 20
8.732801649305555
 30
0.0
 10
8.13214111328125
 20
8.732801649305555
 30
0.0
 10
8.13214111328125
 20
9.537801106770832
 30
0.0
 10
8.13214111328125
 20
9.537801106770832
 30
0.0
 10
8.13214111328125
 20
9.558505588107638
 30
0.0
 10
8.1153564453125
 20
9.575297037760416
 30
0.0
 10
8.094645182291666
 20
9.575297037760416
 30
0.0
 10
8.073933919270832
 20
9.575297037760416
 30
0.0
 10
8.057142469618055
 20
9.558505588107638
 30
0.0
 10
8.057142469618055
 20
9.537801106770832
 30
0.0
 10
8.057142469618055
 20
9.537801106770832
 30
0.0
 10
8.057142469618055
 20
8.732801649305555
 30
0.0
 10
8.057142469618055
 20
8.732801649305555
 30
0.0
  0
ENDBLK
  5
25B
330
258
100
AcDbEntity
  8
0
100
AcDbBlockEnd
  0
BLOCK
  5
25F
330
25D
100
AcDbEntity
  8
0
100
AcDbBlockBegin
  2
block 68
 70
     0
 71
     0
 10
0.0
 20
0.0
 30
0.0
  3
block 68
  1

  0
SPLINE
  5
261
330
25D
100
AcDbEntity
  8
PART
 62
     7
420
 16777215
370
    25
100
AcDbSpline
210
0.0
220
0.0
230
1.0
 70
    11
 71
     3
 72
    20
 73
    16
 74
     0
 42
0.0000000001
 43
0.0000000001
 40
0.0
 40
0.0
 40
0.0
 40
0.0
 40
1.0
 40
1.0
 40
1.0
 40
2.0
 40
2.0
 40
2.0
 40
3.0
 40
3.0
 40
3.0
 40
4.0
 40
4.0
 40
4.0
 40
5.0
 40
5.0
 40
5.0
 40
5.0
 10
7.616644965277778
 20
8.980292426215277
 30
0.0
 10
7.616644965277778
 20
9.026963975694445
 30
0.0
 10
7.578809950086805
 20
9.064798990885416
 30
0.0
 10
7.532145182291666
 20
9.064798990885416
 30
0.0
 10
7.4854736328125
 20
9.064798990885416
 30
0.0
 10
7.447645399305555
 20
9.026963975694445
 30
0.0
 10
7.447645399305555
 20
8.980292426215277
 30
0.0
 10
7.447645399305555
 20
8.933634440104166
 30
0.0
 10
7.4854736328125
 20
8.895792643229166
 30
0.0
 10
7.532145182291666
 20
8.895792643229166
 30
0.0
 10
7.578809950086805
 20
8.895792643229166
 30
0.0
 10
7.616644965277778
 20
8.933634440104166
 30
0.0
 10
7.616644965277778
 20
8.980292426215277
 30
0.0
 10
7.616644965277778
 20
8.980292426215277
 30
0.0
 10
7.616644965277778
 20
8.980292426215277
 30
0.0
 10
7.616644965277778
 20
8.980292426215277
 30
0.0
  0
ENDBLK
  5
260
330
25D
100
AcDbEntity
  8
0
100
AcDbBlockEnd
  0
BLOCK
  5
264
330
262
100
AcDbEntity
  8
0
100
AcDbBlockBegin
  2
block 69
 70
     0
 71
     0
 10
0.0
 20
0.0
 30
0.0
  3
block 69
  1

  0
POLYLINE
  5
266
330
262
100
AcDbEntity
  8
PART
 62
     7
420
 16777215
370
    25
100
AcDb2dPolyline
 66
     1
 10
0.0
 20
0.0
 30
0.0
  0
VERTEX
  5
267
330
266
100
AcDbEntity
  8
PART
 62
     7
420
 16777215
370
    25
100
AcDbVertex
100
AcDb2dVertex
 10
7.391642252604166
 20
8.855292426215277
 30
0.0
  0
VERTEX
  5
268
330
266
100
AcDbEntity
  8
PART
 62
     7
420
 16777215
370
    25
100
AcDbVertex
100
AcDb2dVertex
 10
7.682142469618055
 20
8.855292426215277
 30
0.0
  0
SEQEND
  5
269
330
266
100
AcDbEntity
  8
PART
370
    25
  0
ENDBLK
  5
265
330
262
100
AcDbEntity
  8
0
100
AcDbBlockEnd
  0
BLOCK
  5
26C
330
26A
100
AcDbEntity
  8
0
100
AcDbBlockBegin
  2
block 70
 70
     0
 71
     0
 10
0.0
 20
0.0
 30
0.0
  3
block 70
  1

  0
POLYLINE
  5
26E
330
26A
100
AcDbEntity
  8
PART
 62
     7
420
 16777215
370
    25
100
AcDb2dPolyline
 66
     1
 10
0.0
 20
0.0
 30
0.0
  0
VERTEX
  5
26F
330
26E
100
AcDbEntity
  8
PART
 62
     7
420
 16777215
370
    25
100
AcDbVertex
100
AcDb2dVertex
 10
7.946126302083333
 20
8.855292426215277
 30
0.0
  0
VERTEX
  5
270
330
26E
100
AcDbEntity
  8
PART
 62
     7
420
 16777215
370
    25
100
AcDbVertex
100
AcDb2dVertex
 10
8.057142469618055
 20
8.855292426215277
 30
0.0
  0
SEQEND
  5
271
330
26E
100
AcDbEntity
  8
PART
370
    25
  0
ENDBLK
  5
26D
330
26A
100
AcDbEntity
  8
0
100
AcDbBlockEnd
  0
BLOCK
  5
274
330
272
100
AcDbEntity
  8
0
100
AcDbBlockBegin
  2
block 71
 70
     0
 71
     0
 10
0.0
 20
0.0
 30
0.0
  3
block 71
  1

  0
POLYLINE
  5
276
330
272
100
AcDbEntity
  8
PART
 62
     7
420
 16777215
370
    25
100
AcDb2dPolyline
 66
     1
 10
0.0
 20
0.0
 30
0.0
  0
VERTEX
  5
277
330
276
100
AcDbEntity
  8
PART
 62
     7
420
 16777215
370
    25
100
AcDbVertex
100
AcDb2dVertex
 10
7.75714111328125
 20
8.855292426215277
 30
0.0
  0
VERTEX
  5
278
330
276
100
AcDbEntity
  8
PART
 62
     7
420
 16777215
370
    25
100
AcDbVertex
100
AcDb2dVertex
 10
7.868157280815971
 20
8.855292426215277
 30
0.0
  0
SEQEND
  5
279
330
276
100
AcDbEntity
  8
PART
370
    25
  0
ENDBLK
  5
275
330
272
100
AcDbEntity
  8
0
100
AcDbBlockEnd
  0
BLOCK
  5
27C
330
27A
100
AcDbEntity
  8
0
100
AcDbBlockBegin
  2
block 72
 70
     0
 71
     0
 10
0.0
 20
0.0
 30
0.0
  3
block 72
  1

  0
POLYLINE
  5
27E
330
27A
100
AcDbEntity
  8
PART
 62
     7
420
 16777215
370
    25
100
AcDb2dPolyline
 66
     1
 10
0.0
 20
0.0
 30
0.0
  0
VERTEX
  5
27F
330
27E
100
AcDbEntity
  8
PART
 62
     7
420
 16777215
370
    25
100
AcDbVertex
100
AcDb2dVertex
 10
8.13214111328125
 20
8.855292426215277
 30
0.0
  0
VERTEX
  5
280
330
27E
100
AcDbEntity
  8
PART
 62
     7
420
 16777215
370
    25
100
AcDbVertex
100
AcDb2dVertex
 10
8.243157280815971
 20
8.855292426215277
 30
0.0
  0
SEQEND
  5
281
330
27E
100
AcDbEntity
  8
PART
370
    25
  0
ENDBLK
  5
27D
330
27A
100
AcDbEntity
  8
0
100
AcDbBlockEnd
  0
BLOCK
  5
284
330
282
100
AcDbEntity
  8
0
100
AcDbBlockBegin
  2
block 73
 70
     0
 71
     0
 10
0.0
 20
0.0
 30
0.0
  3
block 73
  1

  0
POLYLINE
  5
286
330
282
100
AcDbEntity
  8
PART
 62
     7
420
 16777215
370
    25
100
AcDb2dPolyline
 66
     1
 10
0.0
 20
0.0
 30
0.0
  0
VERTEX
  5
287
330
286
100
AcDbEntity
  8
PART
 62
     7
420
 16777215
370
    25
100
AcDbVertex
100
AcDb2dVertex
 10
8.321126302083332
 20
8.855292426215277
 30
0.0
  0
VERTEX
  5
288
330
286
100
AcDbEntity
  8
PART
 62
     7
420
 16777215
370
    25
100
AcDbVertex
100
AcDb2dVertex
 10
8.432142469618055
 20
8.855292426215277
 30
0.0
  0
SEQEND
  5
289
330
286
100
AcDbEntity
  8
PART
370
    25
  0
ENDBLK
  5
285
330
282
100
AcDbEntity
  8
0
100
AcDbBlockEnd
  0
BLOCK
  5
28C
330
28A
100
AcDbEntity
  8
0
100
AcDbBlockBegin
  2
block 74
 70
     0
 71
     0
 10
0.0
 20
0.0
 30
0.0
  3
block 74
  1

  0
POLYLINE
  5
28E
330
28A
100
AcDbEntity
  8
PART
 62
     7
420
 16777215
370
    25
100
AcDb2dPolyline
 66
     1
 10
0.0
 20
0.0
 30
0.0
  0
VERTEX
  5
28F
330
28E
100
AcDbEntity
  8
PART
 62
     7
420
 16777215
370
    25
100
AcDbVertex
100
AcDb2dVertex
 10
7.391642252604166
 20
9.415296766493055
 30
0.0
  0
VERTEX
  5
290
330
28E
100
AcDbEntity
  8
PART
 62
     7
420
 16777215
370
    25
100
AcDbVertex
100
AcDb2dVertex
 10
7.682142469618055
 20
9.415296766493055
 30
0.0
  0
SEQEND
  5
291
330
28E
100
AcDbEntity
  8
PART
370
    25
  0
ENDBLK
  5
28D
330
28A
100
AcDbEntity
  8
0
100
AcDbBlockEnd
  0
BLOCK
  5
294
330
292
100
AcDbEntity
  8
0
100
AcDbBlockBegin
  2
block 75
 70
     0
 71
     0
 10
0.0
 20
0.0
 30
0.0
  3
block 75
  1

  0
POLYLINE
  5
296
330
292
100
AcDbEntity
  8
PART
 62
     7
420
 16777215
370
    25
100
AcDb2dPolyline
 66
     1
 10
0.0
 20
0.0
 30
0.0
  0
VERTEX
  5
297
330
296
100
AcDbEntity
  8
PART
 62
     7
420
 16777215
370
    25
100
AcDbVertex
100
AcDb2dVertex
 10
7.946126302083333
 20
9.415296766493055
 30
0.0
  0
VERTEX
  5
298
330
296
100
AcDbEntity
  8
PART
 62
     7
420
 16777215
370
    25
100
AcDbVertex
100
AcDb2dVertex
 10
8.057142469618055
 20
9.415296766493055
 30
0.0
  0
SEQEND
  5
299
330
296
100
AcDbEntity
  8
PART
370
    25
  0
ENDBLK
  5
295
330
292
100
AcDbEntity
  8
0
100
AcDbBlockEnd
  0
BLOCK
  5
29C
330
29A
100
AcDbEntity
  8
0
100
AcDbBlockBegin
  2
block 76
 70
     0
 71
     0
 10
0.0
 20
0.0
 30
0.0
  3
block 76
  1

  0
POLYLINE
  5
29E
330
29A
100
AcDbEntity
  8
PART
 62
     7
420
 16777215
370
    25
100
AcDb2dPolyline
 66
     1
 10
0.0
 20
0.0
 30
0.0
  0
VERTEX
  5
29F
330
29E
100
AcDbEntity
  8
PART
 62
     7
420
 16777215
370
    25
100
AcDbVertex
100
AcDb2dVertex
 10
7.75714111328125
 20
9.415296766493055
 30
0.0
  0
VERTEX
  5
2A0
330
29E
100
AcDbEntity
  8
PART
 62
     7
420
 16777215
370
    25
100
AcDbVertex
100
AcDb2dVertex
 10
7.868157280815971
 20
9.415296766493055
 30
0.0
  0
SEQEND
  5
2A1
330
29E
100
AcDbEntity
  8
PART
370
    25
  0
ENDBLK
  5
29D
330
29A
100
AcDbEntity
  8
0
100
AcDbBlockEnd
  0
BLOCK
  5
2A4
330
2A2
100
AcDbEntity
  8
0
100
AcDbBlockBegin
  2
block 77
 70
     0
 71
     0
 10
0.0
 20
0.0
 30
0.0
  3
block 77
  1

  0
POLYLINE
  5
2A6
330
2A2
100
AcDbEntity
  8
PART
 62
     7
420
 16777215
370
    25
100
AcDb2dPolyline
 66
     1
 10
0.0
 20
0.0
 30
0.0
  0
VERTEX
  5
2A7
330
2A6
100
AcDbEntity
  8
PART
 62
     7
420
 16777215
370
    25
100
AcDbVertex
100
AcDb2dVertex
 10
8.13214111328125
 20
9.415296766493055
 30
0.0
  0
VERTEX
  5
2A8
330
2A6
100
AcDbEntity
  8
PART
 62
     7
420
 16777215
370
    25
100
AcDbVertex
100
AcDb2dVertex
 10
8.243157280815971
 20
9.415296766493055
 30
0.0
  0
SEQEND
  5
2A9
330
2A6
100
AcDbEntity
  8
PART
370
    25
  0
ENDBLK
  5
2A5
330
2A2
100
AcDbEntity
  8
0
100
AcDbBlockEnd
  0
BLOCK
  5
2AC
330
2AA
100
AcDbEntity
  8
0
100
AcDbBlockBegin
  2
block 78
 70
     0
 71
     0
 10
0.0
 20
0.0
 30
0.0
  3
block 78
  1

  0
POLYLINE
  5
2AE
330
2AA
100
AcDbEntity
  8
PART
 62
     7
420
 16777215
370
    25
100
AcDb2dPolyline
 66
     1
 10
0.0
 20
0.0
 30
0.0
  0
VERTEX
  5
2AF
330
2AE
100
AcDbEntity
  8
PART
 62
     7
420
 16777215
370
    25
100
AcDbVertex
100
AcDb2dVertex
 10
8.321126302083332
 20
9.415296766493055
 30
0.0
  0
VERTEX
  5
2B0
330
2AE
100
AcDbEntity
  8
PART
 62
     7
420
 16777215
370
    25
100
AcDbVertex
100
AcDb2dVertex
 10
8.432142469618055
 20
9.415296766493055
 30
0.0
  0
SEQEND
  5
2B1
330
2AE
100
AcDbEntity
  8
PART
370
    25
  0
ENDBLK
  5
2AD
330
2AA
100
AcDbEntity
  8
0
100
AcDbBlockEnd
  0
BLOCK
  5
2B4
330
2B2
100
AcDbEntity
  8
0
100
AcDbBlockBegin
  2
block 79
 70
     0
 71
     0
 10
0.0
 20
0.0
 30
0.0
  3
block 79
  1

  0
SPLINE
  5
2B6
330
2B2
100
AcDbEntity
  8
PART
 62
     7
420
 16777215
370
    25
100
AcDbSpline
210
0.0
220
0.0
230
1.0
 70
    11
 71
     3
 72
    20
 73
    16
 74
     0
 42
0.0000000001
 43
0.0000000001
 40
0.0
 40
0.0
 40
0.0
 40
0.0
 40
1.0
 40
1.0
 40
1.0
 40
2.0
 40
2.0
 40
2.0
 40
3.0
 40
3.0
 40
3.0
 40
4.0
 40
4.0
 40
4.0
 40
5.0
 40
5.0
 40
5.0
 40
5.0
 10
9.491644965277777
 20
9.290296766493055
 30
0.0
 10
9.491644965277777
 20
9.336968315972221
 30
0.0
 10
9.453816731770832
 20
9.374796549479166
 30
0.0
 10
9.407145182291666
 20
9.374796549479166
 30
0.0
 10
9.3604736328125
 20
9.374796549479166
 30
0.0
 10
9.322645399305555
 20
9.336968315972221
 30
0.0
 10
9.322645399305555
 20
9.290296766493055
 30
0.0
 10
9.322645399305555
 20
9.243631998697916
 30
0.0
 10
9.3604736328125
 20
9.205796983506945
 30
0.0
 10
9.407145182291666
 20
9.205796983506945
 30
0.0
 10
9.453816731770832
 20
9.205796983506945
 30
0.0
 10
9.491644965277777
 20
9.243631998697916
 30
0.0
 10
9.491644965277777
 20
9.290296766493055
 30
0.0
 10
9.491644965277777
 20
9.290296766493055
 30
0.0
 10
9.491644965277777
 20
9.290296766493055
 30
0.0
 10
9.491644965277777
 20
9.290296766493055
 30
0.0
  0
ENDBLK
  5
2B5
330
2B2
100
AcDbEntity
  8
0
100
AcDbBlockEnd
  0
BLOCK
  5
2B9
330
2B7
100
AcDbEntity
  8
0
100
AcDbBlockBegin
  2
block 80
 70
     0
 71
     0
 10
0.0
 20
0.0
 30
0.0
  3
block 80
  1

  0
SPLINE
  5
2BB
330
2B7
100
AcDbEntity
  8
PART
 62
     7
420
 16777215
370
    25
100
AcDbSpline
210
0.0
220
0.0
230
1.0
 70
    11
 71
     3
 72
    23
 73
    19
 74
     0
 42
0.0000000001
 43
0.0000000001
 40
0.0
 40
0.0
 40
0.0
 40
0.0
 40
1.0
 40
1.0
 40
1.0
 40
2.0
 40
2.0
 40
2.0
 40
3.0
 40
3.0
 40
3.0
 40
4.0
 40
4.0
 40
4.0
 40
5.0
 40
5.0
 40
5.0
 40
6.0
 40
6.0
 40
6.0
 40
6.0
 10
9.182142469618055
 20
8.732801649305555
 30
0.0
 10
9.182142469618055
 20
8.712090386284721
 30
0.0
 10
9.198933919270832
 20
8.695298936631945
 30
0.0
 10
9.219645182291666
 20
8.695298936631945
 30
0.0
 10
9.2403564453125
 20
8.695298936631945
 30
0.0
 10
9.257147894965277
 20
8.712090386284721
 30
0.0
 10
9.257147894965277
 20
8.732801649305555
 30
0.0
 10
9.257147894965277
 20
8.732801649305555
 30
0.0
 10
9.257147894965277
 20
9.537801106770832
 30
0.0
 10
9.257147894965277
 20
9.537801106770832
 30
0.0
 10
9.257147894965277
 20
9.558505588107638
 30
0.0
 10
9.2403564453125
 20
9.575297037760416
 30
0.0
 10
9.219645182291666
 20
9.575297037760416
 30
0.0
 10
9.198933919270832
 20
9.575297037760416
 30
0.0
 10
9.182142469618055
 20
9.558505588107638
 30
0.0
 10
9.182142469618055
 20
9.537801106770832
 30
0.0
 10
9.182142469618055
 20
9.537801106770832
 30
0.0
 10
9.182142469618055
 20
8.732801649305555
 30
0.0
 10
9.182142469618055
 20
8.732801649305555
 30
0.0
  0
ENDBLK
  5
2BA
330
2B7
100
AcDbEntity
  8
0
100
AcDbBlockEnd
  0
BLOCK
  5
2BE
330
2BC
100
AcDbEntity
  8
0
100
AcDbBlockBegin
  2
block 81
 70
     0
 71
     0
 10
0.0
 20
0.0
 30
0.0
  3
block 81
  1

  0
SPLINE
  5
2C0
330
2BC
100
AcDbEntity
  8
PART
 62
     7
420
 16777215
370
    25
100
AcDbSpline
210
0.0
220
0.0
230
1.0
 70
    11
 71
     3
 72
    23
 73
    19
 74
     0
 42
0.0000000001
 43
0.0000000001
 40
0.0
 40
0.0
 40
0.0
 40
0.0
 40
1.0
 40
1.0
 40
1.0
 40
2.0
 40
2.0
 40
2.0
 40
3.0
 40
3.0
 40
3.0
 40
4.0
 40
4.0
 40
4.0
 40
5.0
 40
5.0
 40
5.0
 40
6.0
 40
6.0
 40
6.0
 40
6.0
 10
8.807142469618055
 20
8.732801649305555
 30
0.0
 10
8.807142469618055
 20
8.712090386284721
 30
0.0
 10
8.823933919270832
 20
8.695298936631945
 30
0.0
 10
8.844645182291666
 20
8.695298936631945
 30
0.0
 10
8.8653564453125
 20
8.695298936631945
 30
0.0
 10
8.88214111328125
 20
8.712090386284721
 30
0.0
 10
8.88214111328125
 20
8.732801649305555
 30
0.0
 10
8.88214111328125
 20
8.732801649305555
 30
0.0
 10
8.88214111328125
 20
9.537801106770832
 30
0.0
 10
8.88214111328125
 20
9.537801106770832
 30
0.0
 10
8.88214111328125
 20
9.558505588107638
 30
0.0
 10
8.8653564453125
 20
9.575297037760416
 30
0.0
 10
8.844645182291666
 20
9.575297037760416
 30
0.0
 10
8.823933919270832
 20
9.575297037760416
 30
0.0
 10
8.807142469618055
 20
9.558505588107638
 30
0.0
 10
8.807142469618055
 20
9.537801106770832
 30
0.0
 10
8.807142469618055
 20
9.537801106770832
 30
0.0
 10
8.807142469618055
 20
8.732801649305555
 30
0.0
 10
8.807142469618055
 20
8.732801649305555
 30
0.0
  0
ENDBLK
  5
2BF
330
2BC
100
AcDbEntity
  8
0
100
AcDbBlockEnd
  0
BLOCK
  5
2C3
330
2C1
100
AcDbEntity
  8
0
100
AcDbBlockBegin
  2
block 82
 70
     0
 71
     0
 10
0.0
 20
0.0
 30
0.0
  3
block 82
  1

  0
SPLINE
  5
2C5
330
2C1
100
AcDbEntity
  8
PART
 62
     7
420
 16777215
370
    25
100
AcDbSpline
210
0.0
220
0.0
230
1.0
 70
    11
 71
     3
 72
    20
 73
    16
 74
     0
 42
0.0000000001
 43
0.0000000001
 40
0.0
 40
0.0
 40
0.0
 40
0.0
 40
1.0
 40
1.0
 40
1.0
 40
2.0
 40
2.0
 40
2.0
 40
3.0
 40
3.0
 40
3.0
 40
4.0
 40
4.0
 40
4.0
 40
5.0
 40
5.0
 40
5.0
 40
5.0
 10
9.491644965277777
 20
8.980292426215277
 30
0.0
 10
9.491644965277777
 20
9.026963975694445
 30
0.0
 10
9.453816731770832
 20
9.064798990885416
 30
0.0
 10
9.407145182291666
 20
9.064798990885416
 30
0.0
 10
9.3604736328125
 20
9.064798990885416
 30
0.0
 10
9.322645399305555
 20
9.026963975694445
 30
0.0
 10
9.322645399305555
 20
8.980292426215277
 30
0.0
 10
9.322645399305555
 20
8.933634440104166
 30
0.0
 10
9.3604736328125
 20
8.895792643229166
 30
0.0
 10
9.407145182291666
 20
8.895792643229166
 30
0.0
 10
9.453816731770832
 20
8.895792643229166
 30
0.0
 10
9.491644965277777
 20
8.933634440104166
 30
0.0
 10
9.491644965277777
 20
8.980292426215277
 30
0.0
 10
9.491644965277777
 20
8.980292426215277
 30
0.0
 10
9.491644965277777
 20
8.980292426215277
 30
0.0
 10
9.491644965277777
 20
8.980292426215277
 30
0.0
  0
ENDBLK
  5
2C4
330
2C1
100
AcDbEntity
  8
0
100
AcDbBlockEnd
  0
BLOCK
  5
2C8
330
2C6
100
AcDbEntity
  8
0
100
AcDbBlockBegin
  2
block 83
 70
     0
 71
     0
 10
0.0
 20
0.0
 30
0.0
  3
block 83
  1

  0
POLYLINE
  5
2CA
330
2C6
100
AcDbEntity
  8
PART
 62
     7
420
 16777215
370
    25
100
AcDb2dPolyline
 66
     1
 10
0.0
 20
0.0
 30
0.0
  0
VERTEX
  5
2CB
330
2CA
100
AcDbEntity
  8
PART
 62
     7
420
 16777215
370
    25
100
AcDbVertex
100
AcDb2dVertex
 10
9.257147894965277
 20
8.855292426215277
 30
0.0
  0
VERTEX
  5
2CC
330
2CA
100
AcDbEntity
  8
PART
 62
     7
420
 16777215
370
    25
100
AcDbVertex
100
AcDb2dVertex
 10
9.547648111979166
 20
8.855292426215277
 30
0.0
  0
SEQEND
  5
2CD
330
2CA
100
AcDbEntity
  8
PART
370
    25
  0
ENDBLK
  5
2C9
330
2C6
100
AcDbEntity
  8
0
100
AcDbBlockEnd
  0
BLOCK
  5
2D0
330
2CE
100
AcDbEntity
  8
0
100
AcDbBlockBegin
  2
block 84
 70
     0
 71
     0
 10
0.0
 20
0.0
 30
0.0
  3
block 84
  1

  0
POLYLINE
  5
2D2
330
2CE
100
AcDbEntity
  8
PART
 62
     7
420
 16777215
370
    25
100
AcDb2dPolyline
 66
     1
 10
0.0
 20
0.0
 30
0.0
  0
VERTEX
  5
2D3
330
2D2
100
AcDbEntity
  8
PART
 62
     7
420
 16777215
370
    25
100
AcDbVertex
100
AcDb2dVertex
 10
8.88214111328125
 20
8.855292426215277
 30
0.0
  0
VERTEX
  5
2D4
330
2D2
100
AcDbEntity
  8
PART
 62
     7
420
 16777215
370
    25
100
AcDbVertex
100
AcDb2dVertex
 10
8.993157280815971
 20
8.855292426215277
 30
0.0
  0
SEQEND
  5
2D5
330
2D2
100
AcDbEntity
  8
PART
370
    25
  0
ENDBLK
  5
2D1
330
2CE
100
AcDbEntity
  8
0
100
AcDbBlockEnd
  0
BLOCK
  5
2D8
330
2D6
100
AcDbEntity
  8
0
100
AcDbBlockBegin
  2
block 85
 70
     0
 71
     0
 10
0.0
 20
0.0
 30
0.0
  3
block 85
  1

  0
POLYLINE
  5
2DA
330
2D6
100
AcDbEntity
  8
PART
 62
     7
420
 16777215
370
    25
100
AcDb2dPolyline
 66
     1
 10
0.0
 20
0.0
 30
0.0
  0
VERTEX
  5
2DB
330
2DA
100
AcDbEntity
  8
PART
 62
     7
420
 16777215
370
    25
100
AcDbVertex
100
AcDb2dVertex
 10
8.696126302083332
 20
8.855292426215277
 30
0.0
  0
VERTEX
  5
2DC
330
2DA
100
AcDbEntity
  8
PART
 62
     7
420
 16777215
370
    25
100
AcDbVertex
100
AcDb2dVertex
 10
8.807142469618055
 20
8.855292426215277
 30
0.0
  0
SEQEND
  5
2DD
330
2DA
100
AcDbEntity
  8
PART
370
    25
  0
ENDBLK
  5
2D9
330
2D6
100
AcDbEntity
  8
0
100
AcDbBlockEnd
  0
BLOCK
  5
2E0
330
2DE
100
AcDbEntity
  8
0
100
AcDbBlockBegin
  2
block 86
 70
     0
 71
     0
 10
0.0
 20
0.0
 30
0.0
  3
block 86
  1

  0
POLYLINE
  5
2E2
330
2DE
100
AcDbEntity
  8
PART
 62
     7
420
 16777215
370
    25
100
AcDb2dPolyline
 66
     1
 10
0.0
 20
0.0
 30
0.0
  0
VERTEX
  5
2E3
330
2E2
100
AcDbEntity
  8
PART
 62
     7
420
 16777215
370
    25
100
AcDbVertex
100
AcDb2dVertex
 10
9.071126302083332
 20
8.855292426215277
 30
0.0
  0
VERTEX
  5
2E4
330
2E2
100
AcDbEntity
  8
PART
 62
     7
420
 16777215
370
    25
100
AcDbVertex
100
AcDb2dVertex
 10
9.182142469618055
 20
8.855292426215277
 30
0.0
  0
SEQEND
  5
2E5
330
2E2
100
AcDbEntity
  8
PART
370
    25
  0
ENDBLK
  5
2E1
330
2DE
100
AcDbEntity
  8
0
100
AcDbBlockEnd
  0
BLOCK
  5
2E8
330
2E6
100
AcDbEntity
  8
0
100
AcDbBlockBegin
  2
block 87
 70
     0
 71
     0
 10
0.0
 20
0.0
 30
0.0
  3
block 87
  1

  0
POLYLINE
  5
2EA
330
2E6
100
AcDbEntity
  8
PART
 62
     7
420
 16777215
370
    25
100
AcDb2dPolyline
 66
     1
 10
0.0
 20
0.0
 30
0.0
  0
VERTEX
  5
2EB
330
2EA
100
AcDbEntity
  8
PART
 62
     7
420
 16777215
370
    25
100
AcDbVertex
100
AcDb2dVertex
 10
9.257147894965277
 20
9.415296766493055
 30
0.0
  0
VERTEX
  5
2EC
330
2EA
100
AcDbEntity
  8
PART
 62
     7
420
 16777215
370
    25
100
AcDbVertex
100
AcDb2dVertex
 10
9.547648111979166
 20
9.415296766493055
 30
0.0
  0
SEQEND
  5
2ED
330
2EA
100
AcDbEntity
  8
PART
370
    25
  0
ENDBLK
  5
2E9
330
2E6
100
AcDbEntity
  8
0
100
AcDbBlockEnd
  0
BLOCK
  5
2F0
330
2EE
100
AcDbEntity
  8
0
100
AcDbBlockBegin
  2
block 88
 70
     0
 71
     0
 10
0.0
 20
0.0
 30
0.0
  3
block 88
  1

  0
POLYLINE
  5
2F2
330
2EE
100
AcDbEntity
  8
PART
 62
     7
420
 16777215
370
    25
100
AcDb2dPolyline
 66
     1
 10
0.0
 20
0.0
 30
0.0
  0
VERTEX
  5
2F3
330
2F2
100
AcDbEntity
  8
PART
 62
     7
420
 16777215
370
    25
100
AcDbVertex
100
AcDb2dVertex
 10
8.88214111328125
 20
9.415296766493055
 30
0.0
  0
VERTEX
  5
2F4
330
2F2
100
AcDbEntity
  8
PART
 62
     7
420
 16777215
370
    25
100
AcDbVertex
100
AcDb2dVertex
 10
8.993157280815971
 20
9.415296766493055
 30
0.0
  0
SEQEND
  5
2F5
330
2F2
100
AcDbEntity
  8
PART
370
    25
  0
ENDBLK
  5
2F1
330
2EE
100
AcDbEntity
  8
0
100
AcDbBlockEnd
  0
BLOCK
  5
2F8
330
2F6
100
AcDbEntity
  8
0
100
AcDbBlockBegin
  2
block 89
 70
     0
 71
     0
 10
0.0
 20
0.0
 30
0.0
  3
block 89
  1

  0
POLYLINE
  5
2FA
330
2F6
100
AcDbEntity
  8
PART
 62
     7
420
 16777215
370
    25
100
AcDb2dPolyline
 66
     1
 10
0.0
 20
0.0
 30
0.0
  0
VERTEX
  5
2FB
330
2FA
100
AcDbEntity
  8
PART
 62
     7
420
 16777215
370
    25
100
AcDbVertex
100
AcDb2dVertex
 10
8.696126302083332
 20
9.415296766493055
 30
0.0
  0
VERTEX
  5
2FC
330
2FA
100
AcDbEntity
  8
PART
 62
     7
420
 16777215
370
    25
100
AcDbVertex
100
AcDb2dVertex
 10
8.807142469618055
 20
9.415296766493055
 30
0.0
  0
SEQEND
  5
2FD
330
2FA
100
AcDbEntity
  8
PART
370
    25
  0
ENDBLK
  5
2F9
330
2F6
100
AcDbEntity
  8
0
100
AcDbBlockEnd
  0
BLOCK
  5
300
330
2FE
100
AcDbEntity
  8
0
100
AcDbBlockBegin
  2
block 90
 70
     0
 71
     0
 10
0.0
 20
0.0
 30
0.0
  3
block 90
  1

  0
POLYLINE
  5
302
330
2FE
100
AcDbEntity
  8
PART
 62
     7
420
 16777215
370
    25
100
AcDb2dPolyline
 66
     1
 10
0.0
 20
0.0
 30
0.0
  0
VERTEX
  5
303
330
302
100
AcDbEntity
  8
PART
 62
     7
420
 16777215
370
    25
100
AcDbVertex
100
AcDb2dVertex
 10
9.071126302083332
 20
9.415296766493055
 30
0.0
  0
VERTEX
  5
304
330
302
100
AcDbEntity
  8
PART
 62
     7
420
 16777215
370
    25
100
AcDbVertex
100
AcDb2dVertex
 10
9.182142469618055
 20
9.415296766493055
 30
0.0
  0
SEQEND
  5
305
330
302
100
AcDbEntity
  8
PART
370
    25
  0
ENDBLK
  5
301
330
2FE
100
AcDbEntity
  8
0
100
AcDbBlockEnd
  0
BLOCK
  5
309
330
307
100
AcDbEntity
  8
0
100
AcDbBlockBegin
  2
block 91
 70
     0
 71
     0
 10
0.0
 20
0.0
 30
0.0
  3
block 91
  1

  0
SPLINE
  5
30B
330
307
100
AcDbEntity
  8
SCREWS
 62
     6
420
 16711935
370
    25
100
AcDbSpline
210
0.0
220
0.0
230
1.0
 70
     8
 71
     3
 72
    26
 73
    22
 74
     0
 42
0.0000000001
 43
0.0000000001
 40
0.0
 40
0.0
 40
0.0
 40
0.0
 40
1.0
 40
1.0
 40
1.0
 40
2.0
 40
2.0
 40
2.0
 40
3.0
 40
3.0
 40
3.0
 40
4.0
 40
4.0
 40
4.0
 40
5.0
 40
5.0
 40
5.0
 40
6.0
 40
6.0
 40
6.0
 40
7.0
 40
7.0
 40
7.0
 40
7.0
 10
8.179558648003471
 20
9.208930121527777
 30
0.0
 10
8.179558648003471
 20
9.208930121527777
 30
0.0
 10
8.23971896701389
 20
9.269083658854166
 30
0.0
 10
8.23971896701389
 20
9.269083658854166
 30
0.0
 10
8.25143093532986
 20
9.280802408854166
 30
0.0
 10
8.25143093532986
 20
9.299797905815971
 30
0.0
 10
8.23971896701389
 20
9.311509874131945
 30
0.0
 10
8.23971896701389
 20
9.311509874131945
 30
0.0
 10
8.207899305555555
 20
9.343329535590277
 30
0.0
 10
8.207899305555555
 20
9.343329535590277
 30
0.0
 10
8.207899305555555
 20
9.343329535590277
 30
0.0
 10
8.229112413194445
 20
9.364542643229166
 30
0.0
 10
8.229112413194445
 20
9.364542643229166
 30
0.0
 10
8.229112413194445
 20
9.364542643229166
 30
0.0
 10
8.260932074652777
 20
9.332722981770832
 30
0.0
 10
8.260932074652777
 20
9.332722981770832
 30
0.0
 10
8.27264404296875
 20
9.32101101345486
 30
0.0
 10
8.291639539930555
 20
9.32101101345486
 30
0.0
 10
8.303358289930555
 20
9.332722981770832
 30
0.0
 10
8.303358289930555
 20
9.332722981770832
 30
0.0
 10
8.363511827256945
 20
9.39288330078125
 30
0.0
 10
8.363511827256945
 20
9.39288330078125
 30
0.0
  0
ENDBLK
  5
30A
330
307
100
AcDbEntity
  8
0
100
AcDbBlockEnd
  0
BLOCK
  5
30E
330
30C
100
AcDbEntity
  8
0
100
AcDbBlockBegin
  2
block 92
 70
     0
 71
     0
 10
0.0
 20
0.0
 30
0.0
  3
block 92
  1

  0
SPLINE
  5
310
330
30C
100
AcDbEntity
  8
SCREWS
 62
     6
420
 16711935
370
    25
100
AcDbSpline
210
0.0
220
0.0
230
1.0
 70
     8
 71
     3
 72
    26
 73
    22
 74
     0
 42
0.0000000001
 43
0.0000000001
 40
0.0
 40
0.0
 40
0.0
 40
0.0
 40
1.0
 40
1.0
 40
1.0
 40
2.0
 40
2.0
 40
2.0
 40
3.0
 40
3.0
 40
3.0
 40
4.0
 40
4.0
 40
4.0
 40
5.0
 40
5.0
 40
5.0
 40
6.0
 40
6.0
 40
6.0
 40
7.0
 40
7.0
 40
7.0
 40
7.0
 10
8.384724934895832
 20
9.37167019314236
 30
0.0
 10
8.384724934895832
 20
9.37167019314236
 30
0.0
 10
8.324571397569445
 20
9.311509874131945
 30
0.0
 10
8.324571397569445
 20
9.311509874131945
 30
0.0
 10
8.312852647569445
 20
9.299797905815971
 30
0.0
 10
8.312852647569445
 20
9.280802408854166
 30
0.0
 10
8.324571397569445
 20
9.269083658854166
 30
0.0
 10
8.324571397569445
 20
9.269083658854166
 30
0.0
 10
8.356391059027777
 20
9.237263997395832
 30
0.0
 10
8.356391059027777
 20
9.237263997395832
 30
0.0
 10
8.356391059027777
 20
9.237263997395832
 30
0.0
 10
8.33517795138889
 20
9.216050889756945
 30
0.0
 10
8.33517795138889
 20
9.216050889756945
 30
0.0
 10
8.33517795138889
 20
9.216050889756945
 30
0.0
 10
8.303358289930555
 20
9.247870551215277
 30
0.0
 10
8.303358289930555
 20
9.247870551215277
 30
0.0
 10
8.291639539930555
 20
9.259589301215277
 30
0.0
 10
8.27264404296875
 20
9.259589301215277
 30
0.0
 10
8.260932074652777
 20
9.247870551215277
 30
0.0
 10
8.260932074652777
 20
9.247870551215277
 30
0.0
 10
8.20077175564236
 20
9.187717013888888
 30
0.0
 10
8.20077175564236
 20
9.187717013888888
 30
0.0
  0
ENDBLK
  5
30F
330
30C
100
AcDbEntity
  8
0
100
AcDbBlockEnd
  0
BLOCK
  5
313
330
311
100
AcDbEntity
  8
0
100
AcDbBlockBegin
  2
block 93
 70
     0
 71
     0
 10
0.0
 20
0.0
 30
0.0
  3
block 93
  1

  0
SPLINE
  5
315
330
311
100
AcDbEntity
  8
SCREWS
 62
     6
420
 16711935
370
    25
100
AcDbSpline
210
0.0
220
0.0
230
1.0
 70
    11
 71
     3
 72
    20
 73
    16
 74
     0
 42
0.0000000001
 43
0.0000000001
 40
0.0
 40
0.0
 40
0.0
 40
0.0
 40
1.0
 40
1.0
 40
1.0
 40
2.0
 40
2.0
 40
2.0
 40
3.0
 40
3.0
 40
3.0
 40
4.0
 40
4.0
 40
4.0
 40
5.0
 40
5.0
 40
5.0
 40
5.0
 10
8.413079155815971
 20
9.290296766493055
 30
0.0
 10
8.413079155815971
 20
9.36260986328125
 30
0.0
 10
8.35445827907986
 20
9.421237521701388
 30
0.0
 10
8.282145182291666
 20
9.421237521701388
 30
0.0
 10
8.209825303819445
 20
9.421237521701388
 30
0.0
 10
8.151204427083332
 20
9.36260986328125
 30
0.0
 10
8.151204427083332
 20
9.290296766493055
 30
0.0
 10
8.151204427083332
 20
9.21798366970486
 30
0.0
 10
8.209825303819445
 20
9.159356011284721
 30
0.0
 10
8.282145182291666
 20
9.159356011284721
 30
0.0
 10
8.35445827907986
 20
9.159356011284721
 30
0.0
 10
8.413079155815971
 20
9.21798366970486
 30
0.0
 10
8.413079155815971
 20
9.290296766493055
 30
0.0
 10
8.413079155815971
 20
9.290296766493055
 30
0.0
 10
8.413079155815971
 20
9.290296766493055
 30
0.0
 10
8.413079155815971
 20
9.290296766493055
 30
0.0
  0
ENDBLK
  5
314
330
311
100
AcDbEntity
  8
0
100
AcDbBlockEnd
  0
BLOCK
  5
318
330
316
100
AcDbEntity
  8
0
100
AcDbBlockBegin
  2
block 94
 70
     0
 71
     0
 10
0.0
 20
0.0
 30
0.0
  3
block 94
  1

  0
SPLINE
  5
31A
330
316
100
AcDbEntity
  8
SCREWS
 62
     6
420
 16711935
370
    25
100
AcDbSpline
210
0.0
220
0.0
230
1.0
 70
     8
 71
     3
 72
    26
 73
    22
 74
     0
 42
0.0000000001
 43
0.0000000001
 40
0.0
 40
0.0
 40
0.0
 40
0.0
 40
1.0
 40
1.0
 40
1.0
 40
2.0
 40
2.0
 40
2.0
 40
3.0
 40
3.0
 40
3.0
 40
4.0
 40
4.0
 40
4.0
 40
5.0
 40
5.0
 40
5.0
 40
6.0
 40
6.0
 40
6.0
 40
7.0
 40
7.0
 40
7.0
 40
7.0
 10
7.804558648003471
 20
9.208930121527777
 30
0.0
 10
7.804558648003471
 20
9.208930121527777
 30
0.0
 10
7.864718967013888
 20
9.269083658854166
 30
0.0
 10
7.864718967013888
 20
9.269083658854166
 30
0.0
 10
7.876430935329861
 20
9.280802408854166
 30
0.0
 10
7.876430935329861
 20
9.299797905815971
 30
0.0
 10
7.864718967013888
 20
9.311509874131945
 30
0.0
 10
7.864718967013888
 20
9.311509874131945
 30
0.0
 10
7.832899305555555
 20
9.343329535590277
 30
0.0
 10
7.832899305555555
 20
9.343329535590277
 30
0.0
 10
7.832899305555555
 20
9.343329535590277
 30
0.0
 10
7.854112413194444
 20
9.364542643229166
 30
0.0
 10
7.854112413194444
 20
9.364542643229166
 30
0.0
 10
7.854112413194444
 20
9.364542643229166
 30
0.0
 10
7.885932074652778
 20
9.332722981770832
 30
0.0
 10
7.885932074652778
 20
9.332722981770832
 30
0.0
 10
7.89764404296875
 20
9.32101101345486
 30
0.0
 10
7.916639539930555
 20
9.32101101345486
 30
0.0
 10
7.928358289930555
 20
9.332722981770832
 30
0.0
 10
7.928358289930555
 20
9.332722981770832
 30
0.0
 10
7.988511827256944
 20
9.39288330078125
 30
0.0
 10
7.988511827256944
 20
9.39288330078125
 30
0.0
  0
ENDBLK
  5
319
330
316
100
AcDbEntity
  8
0
100
AcDbBlockEnd
  0
BLOCK
  5
31D
330
31B
100
AcDbEntity
  8
0
100
AcDbBlockBegin
  2
block 95
 70
     0
 71
     0
 10
0.0
 20
0.0
 30
0.0
  3
block 95
  1

  0
SPLINE
  5
31F
330
31B
100
AcDbEntity
  8
SCREWS
 62
     6
420
 16711935
370
    25
100
AcDbSpline
210
0.0
220
0.0
230
1.0
 70
     8
 71
     3
 72
    26
 73
    22
 74
     0
 42
0.0000000001
 43
0.0000000001
 40
0.0
 40
0.0
 40
0.0
 40
0.0
 40
1.0
 40
1.0
 40
1.0
 40
2.0
 40
2.0
 40
2.0
 40
3.0
 40
3.0
 40
3.0
 40
4.0
 40
4.0
 40
4.0
 40
5.0
 40
5.0
 40
5.0
 40
6.0
 40
6.0
 40
6.0
 40
7.0
 40
7.0
 40
7.0
 40
7.0
 10
8.009724934895832
 20
9.37167019314236
 30
0.0
 10
8.009724934895832
 20
9.37167019314236
 30
0.0
 10
7.949571397569444
 20
9.311509874131945
 30
0.0
 10
7.949571397569444
 20
9.311509874131945
 30
0.0
 10
7.937852647569444
 20
9.299797905815971
 30
0.0
 10
7.937852647569444
 20
9.280802408854166
 30
0.0
 10
7.949571397569444
 20
9.269083658854166
 30
0.0
 10
7.949571397569444
 20
9.269083658854166
 30
0.0
 10
7.981391059027778
 20
9.237263997395832
 30
0.0
 10
7.981391059027778
 20
9.237263997395832
 30
0.0
 10
7.981391059027778
 20
9.237263997395832
 30
0.0
 10
7.960177951388888
 20
9.216050889756945
 30
0.0
 10
7.960177951388888
 20
9.216050889756945
 30
0.0
 10
7.960177951388888
 20
9.216050889756945
 30
0.0
 10
7.928358289930555
 20
9.247870551215277
 30
0.0
 10
7.928358289930555
 20
9.247870551215277
 30
0.0
 10
7.916639539930555
 20
9.259589301215277
 30
0.0
 10
7.89764404296875
 20
9.259589301215277
 30
0.0
 10
7.885932074652778
 20
9.247870551215277
 30
0.0
 10
7.885932074652778
 20
9.247870551215277
 30
0.0
 10
7.825771755642361
 20
9.187717013888888
 30
0.0
 10
7.825771755642361
 20
9.187717013888888
 30
0.0
  0
ENDBLK
  5
31E
330
31B
100
AcDbEntity
  8
0
100
AcDbBlockEnd
  0
BLOCK
  5
322
330
320
100
AcDbEntity
  8
0
100
AcDbBlockBegin
  2
block 96
 70
     0
 71
     0
 10
0.0
 20
0.0
 30
0.0
  3
block 96
  1

  0
SPLINE
  5
324
330
320
100
AcDbEntity
  8
SCREWS
 62
     6
420
 16711935
370
    25
100
AcDbSpline
210
0.0
220
0.0
230
1.0
 70
    11
 71
     3
 72
    20
 73
    16
 74
     0
 42
0.0000000001
 43
0.0000000001
 40
0.0
 40
0.0
 40
0.0
 40
0.0
 40
1.0
 40
1.0
 40
1.0
 40
2.0
 40
2.0
 40
2.0
 40
3.0
 40
3.0
 40
3.0
 40
4.0
 40
4.0
 40
4.0
 40
5.0
 40
5.0
 40
5.0
 40
5.0
 10
8.038079155815971
 20
9.290296766493055
 30
0.0
 10
8.038079155815971
 20
9.36260986328125
 30
0.0
 10
7.979458279079861
 20
9.421237521701388
 30
0.0
 10
7.907145182291666
 20
9.421237521701388
 30
0.0
 10
7.834825303819444
 20
9.421237521701388
 30
0.0
 10
7.776204427083333
 20
9.36260986328125
 30
0.0
 10
7.776204427083333
 20
9.290296766493055
 30
0.0
 10
7.776204427083333
 20
9.21798366970486
 30
0.0
 10
7.834825303819444
 20
9.159356011284721
 30
0.0
 10
7.907145182291666
 20
9.159356011284721
 30
0.0
 10
7.979458279079861
 20
9.159356011284721
 30
0.0
 10
8.038079155815971
 20
9.21798366970486
 30
0.0
 10
8.038079155815971
 20
9.290296766493055
 30
0.0
 10
8.038079155815971
 20
9.290296766493055
 30
0.0
 10
8.038079155815971
 20
9.290296766493055
 30
0.0
 10
8.038079155815971
 20
9.290296766493055
 30
0.0
  0
ENDBLK
  5
323
330
320
100
AcDbEntity
  8
0
100
AcDbBlockEnd
  0
BLOCK
  5
327
330
325
100
AcDbEntity
  8
0
100
AcDbBlockBegin
  2
block 97
 70
     0
 71
     0
 10
0.0
 20
0.0
 30
0.0
  3
block 97
  1

  0
SPLINE
  5
329
330
325
100
AcDbEntity
  8
SCREWS
 62
     6
420
 16711935
370
    25
100
AcDbSpline
210
0.0
220
0.0
230
1.0
 70
    11
 71
     3
 72
    20
 73
    16
 74
     0
 42
0.0000000001
 43
0.0000000001
 40
0.0
 40
0.0
 40
0.0
 40
0.0
 40
1.0
 40
1.0
 40
1.0
 40
2.0
 40
2.0
 40
2.0
 40
3.0
 40
3.0
 40
3.0
 40
4.0
 40
4.0
 40
4.0
 40
5.0
 40
5.0
 40
5.0
 40
5.0
 10
8.038079155815971
 20
8.980292426215277
 30
0.0
 10
8.038079155815971
 20
9.0526123046875
 30
0.0
 10
7.979458279079861
 20
9.11123318142361
 30
0.0
 10
7.907145182291666
 20
9.11123318142361
 30
0.0
 10
7.834825303819444
 20
9.11123318142361
 30
0.0
 10
7.776204427083333
 20
9.0526123046875
 30
0.0
 10
7.776204427083333
 20
8.980292426215277
 30
0.0
 10
7.776204427083333
 20
8.90798611111111
 30
0.0
 10
7.834825303819444
 20
8.849365234375
 30
0.0
 10
7.907145182291666
 20
8.849365234375
 30
0.0
 10
7.979458279079861
 20
8.849365234375
 30
0.0
 10
8.038079155815971
 20
8.90798611111111
 30
0.0
 10
8.038079155815971
 20
8.980292426215277
 30
0.0
 10
8.038079155815971
 20
8.980292426215277
 30
0.0
 10
8.038079155815971
 20
8.980292426215277
 30
0.0
 10
8.038079155815971
 20
8.980292426215277
 30
0.0
  0
ENDBLK
  5
328
330
325
100
AcDbEntity
  8
0
100
AcDbBlockEnd
  0
BLOCK
  5
32C
330
32A
100
AcDbEntity
  8
0
100
AcDbBlockBegin
  2
block 98
 70
     0
 71
     0
 10
0.0
 20
0.0
 30
0.0
  3
block 98
  1

  0
SPLINE
  5
32E
330
32A
100
AcDbEntity
  8
SCREWS
 62
     6
420
 16711935
370
    25
100
AcDbSpline
210
0.0
220
0.0
230
1.0
 70
     8
 71
     3
 72
    26
 73
    22
 74
     0
 42
0.0000000001
 43
0.0000000001
 40
0.0
 40
0.0
 40
0.0
 40
0.0
 40
1.0
 40
1.0
 40
1.0
 40
2.0
 40
2.0
 40
2.0
 40
3.0
 40
3.0
 40
3.0
 40
4.0
 40
4.0
 40
4.0
 40
5.0
 40
5.0
 40
5.0
 40
6.0
 40
6.0
 40
6.0
 40
7.0
 40
7.0
 40
7.0
 40
7.0
 10
8.009724934895832
 20
9.061665852864582
 30
0.0
 10
8.009724934895832
 20
9.061665852864582
 30
0.0
 10
7.949571397569444
 20
9.001512315538195
 30
0.0
 10
7.949571397569444
 20
9.001512315538195
 30
0.0
 10
7.937852647569444
 20
8.989800347222221
 30
0.0
 10
7.937852647569444
 20
8.970798068576388
 30
0.0
 10
7.949571397569444
 20
8.959079318576388
 30
0.0
 10
7.949571397569444
 20
8.959079318576388
 30
0.0
 10
7.981391059027778
 20
8.927259657118055
 30
0.0
 10
7.981391059027778
 20
8.927259657118055
 30
0.0
 10
7.981391059027778
 20
8.927259657118055
 30
0.0
 10
7.960177951388888
 20
8.906046549479166
 30
0.0
 10
7.960177951388888
 20
8.906046549479166
 30
0.0
 10
7.960177951388888
 20
8.906046549479166
 30
0.0
 10
7.928358289930555
 20
8.9378662109375
 30
0.0
 10
7.928358289930555
 20
8.9378662109375
 30
0.0
 10
7.916639539930555
 20
8.9495849609375
 30
0.0
 10
7.89764404296875
 20
8.9495849609375
 30
0.0
 10
7.885932074652778
 20
8.9378662109375
 30
0.0
 10
7.885932074652778
 20
8.9378662109375
 30
0.0
 10
7.825771755642361
 20
8.87771267361111
 30
0.0
 10
7.825771755642361
 20
8.87771267361111
 30
0.0
  0
ENDBLK
  5
32D
330
32A
100
AcDbEntity
  8
0
100
AcDbBlockEnd
  0
BLOCK
  5
331
330
32F
100
AcDbEntity
  8
0
100
AcDbBlockBegin
  2
block 99
 70
     0
 71
     0
 10
0.0
 20
0.0
 30
0.0
  3
block 99
  1

  0
SPLINE
  5
333
330
32F
100
AcDbEntity
  8
SCREWS
 62
     6
420
 16711935
370
    25
100
AcDbSpline
210
0.0
220
0.0
230
1.0
 70
     8
 71
     3
 72
    26
 73
    22
 74
     0
 42
0.0000000001
 43
0.0000000001
 40
0.0
 40
0.0
 40
0.0
 40
0.0
 40
1.0
 40
1.0
 40
1.0
 40
2.0
 40
2.0
 40
2.0
 40
3.0
 40
3.0
 40
3.0
 40
4.0
 40
4.0
 40
4.0
 40
5.0
 40
5.0
 40
5.0
 40
6.0
 40
6.0
 40
6.0
 40
7.0
 40
7.0
 40
7.0
 40
7.0
 10
7.804558648003471
 20
8.89892578125
 30
0.0
 10
7.804558648003471
 20
8.89892578125
 30
0.0
 10
7.864718967013888
 20
8.959079318576388
 30
0.0
 10
7.864718967013888
 20
8.959079318576388
 30
0.0
 10
7.876430935329861
 20
8.970798068576388
 30
0.0
 10
7.876430935329861
 20
8.989800347222221
 30
0.0
 10
7.864718967013888
 20
9.001512315538195
 30
0.0
 10
7.864718967013888
 20
9.001512315538195
 30
0.0
 10
7.832899305555555
 20
9.033331976996527
 30
0.0
 10
7.832899305555555
 20
9.033331976996527
 30
0.0
 10
7.832899305555555
 20
9.033331976996527
 30
0.0
 10
7.854112413194444
 20
9.054545084635416
 30
0.0
 10
7.854112413194444
 20
9.054545084635416
 30
0.0
 10
7.854112413194444
 20
9.054545084635416
 30
0.0
 10
7.885932074652778
 20
9.022725423177082
 30
0.0
 10
7.885932074652778
 20
9.022725423177082
 30
0.0
 10
7.89764404296875
 20
9.011006673177082
 30
0.0
 10
7.916639539930555
 20
9.011006673177082
 30
0.0
 10
7.928358289930555
 20
9.022725423177082
 30
0.0
 10
7.928358289930555
 20
9.022725423177082
 30
0.0
 10
7.988511827256944
 20
9.082878960503471
 30
0.0
 10
7.988511827256944
 20
9.082878960503471
 30
0.0
  0
ENDBLK
  5
332
330
32F
100
AcDbEntity
  8
0
100
AcDbBlockEnd
  0
BLOCK
  5
336
330
334
100
AcDbEntity
  8
0
100
AcDbBlockBegin
  2
block 100
 70
     0
 71
     0
 10
0.0
 20
0.0
 30
0.0
  3
block 100
  1

  0
SPLINE
  5
338
330
334
100
AcDbEntity
  8
SCREWS
 62
     6
420
 16711935
370
    25
100
AcDbSpline
210
0.0
220
0.0
230
1.0
 70
    11
 71
     3
 72
    20
 73
    16
 74
     0
 42
0.0000000001
 43
0.0000000001
 40
0.0
 40
0.0
 40
0.0
 40
0.0
 40
1.0
 40
1.0
 40
1.0
 40
2.0
 40
2.0
 40
2.0
 40
3.0
 40
3.0
 40
3.0
 40
4.0
 40
4.0
 40
4.0
 40
5.0
 40
5.0
 40
5.0
 40
5.0
 10
8.413079155815971
 20
8.980292426215277
 30
0.0
 10
8.413079155815971
 20
9.0526123046875
 30
0.0
 10
8.35445827907986
 20
9.11123318142361
 30
0.0
 10
8.282145182291666
 20
9.11123318142361
 30
0.0
 10
8.209825303819445
 20
9.11123318142361
 30
0.0
 10
8.151204427083332
 20
9.0526123046875
 30
0.0
 10
8.151204427083332
 20
8.980292426215277
 30
0.0
 10
8.151204427083332
 20
8.90798611111111
 30
0.0
 10
8.209825303819445
 20
8.849365234375
 30
0.0
 10
8.282145182291666
 20
8.849365234375
 30
0.0
 10
8.35445827907986
 20
8.849365234375
 30
0.0
 10
8.413079155815971
 20
8.90798611111111
 30
0.0
 10
8.413079155815971
 20
8.980292426215277
 30
0.0
 10
8.413079155815971
 20
8.980292426215277
 30
0.0
 10
8.413079155815971
 20
8.980292426215277
 30
0.0
 10
8.413079155815971
 20
8.980292426215277
 30
0.0
  0
ENDBLK
  5
337
330
334
100
AcDbEntity
  8
0
100
AcDbBlockEnd
  0
BLOCK
  5
33B
330
339
100
AcDbEntity
  8
0
100
AcDbBlockBegin
  2
block 101
 70
     0
 71
     0
 10
0.0
 20
0.0
 30
0.0
  3
block 101
  1

  0
SPLINE
  5
33D
330
339
100
AcDbEntity
  8
SCREWS
 62
     6
420
 16711935
370
    25
100
AcDbSpline
210
0.0
220
0.0
230
1.0
 70
     8
 71
     3
 72
    26
 73
    22
 74
     0
 42
0.0000000001
 43
0.0000000001
 40
0.0
 40
0.0
 40
0.0
 40
0.0
 40
1.0
 40
1.0
 40
1.0
 40
2.0
 40
2.0
 40
2.0
 40
3.0
 40
3.0
 40
3.0
 40
4.0
 40
4.0
 40
4.0
 40
5.0
 40
5.0
 40
5.0
 40
6.0
 40
6.0
 40
6.0
 40
7.0
 40
7.0
 40
7.0
 40
7.0
 10
8.384724934895832
 20
9.061665852864582
 30
0.0
 10
8.384724934895832
 20
9.061665852864582
 30
0.0
 10
8.324571397569445
 20
9.001512315538195
 30
0.0
 10
8.324571397569445
 20
9.001512315538195
 30
0.0
 10
8.312852647569445
 20
8.989800347222221
 30
0.0
 10
8.312852647569445
 20
8.970798068576388
 30
0.0
 10
8.324571397569445
 20
8.959079318576388
 30
0.0
 10
8.324571397569445
 20
8.959079318576388
 30
0.0
 10
8.356391059027777
 20
8.927259657118055
 30
0.0
 10
8.356391059027777
 20
8.927259657118055
 30
0.0
 10
8.356391059027777
 20
8.927259657118055
 30
0.0
 10
8.33517795138889
 20
8.906046549479166
 30
0.0
 10
8.33517795138889
 20
8.906046549479166
 30
0.0
 10
8.33517795138889
 20
8.906046549479166
 30
0.0
 10
8.303358289930555
 20
8.9378662109375
 30
0.0
 10
8.303358289930555
 20
8.9378662109375
 30
0.0
 10
8.291639539930555
 20
8.9495849609375
 30
0.0
 10
8.27264404296875
 20
8.9495849609375
 30
0.0
 10
8.260932074652777
 20
8.9378662109375
 30
0.0
 10
8.260932074652777
 20
8.9378662109375
 30
0.0
 10
8.20077175564236
 20
8.87771267361111
 30
0.0
 10
8.20077175564236
 20
8.87771267361111
 30
0.0
  0
ENDBLK
  5
33C
330
339
100
AcDbEntity
  8
0
100
AcDbBlockEnd
  0
BLOCK
  5
340
330
33E
100
AcDbEntity
  8
0
100
AcDbBlockBegin
  2
block 102
 70
     0
 71
     0
 10
0.0
 20
0.0
 30
0.0
  3
block 102
  1

  0
SPLINE
  5
342
330
33E
100
AcDbEntity
  8
SCREWS
 62
     6
420
 16711935
370
    25
100
AcDbSpline
210
0.0
220
0.0
230
1.0
 70
     8
 71
     3
 72
    26
 73
    22
 74
     0
 42
0.0000000001
 43
0.0000000001
 40
0.0
 40
0.0
 40
0.0
 40
0.0
 40
1.0
 40
1.0
 40
1.0
 40
2.0
 40
2.0
 40
2.0
 40
3.0
 40
3.0
 40
3.0
 40
4.0
 40
4.0
 40
4.0
 40
5.0
 40
5.0
 40
5.0
 40
6.0
 40
6.0
 40
6.0
 40
7.0
 40
7.0
 40
7.0
 40
7.0
 10
8.179558648003471
 20
8.89892578125
 30
0.0
 10
8.179558648003471
 20
8.89892578125
 30
0.0
 10
8.23971896701389
 20
8.959079318576388
 30
0.0
 10
8.23971896701389
 20
8.959079318576388
 30
0.0
 10
8.25143093532986
 20
8.970798068576388
 30
0.0
 10
8.25143093532986
 20
8.989800347222221
 30
0.0
 10
8.23971896701389
 20
9.001512315538195
 30
0.0
 10
8.23971896701389
 20
9.001512315538195
 30
0.0
 10
8.207899305555555
 20
9.033331976996527
 30
0.0
 10
8.207899305555555
 20
9.033331976996527
 30
0.0
 10
8.207899305555555
 20
9.033331976996527
 30
0.0
 10
8.229112413194445
 20
9.054545084635416
 30
0.0
 10
8.229112413194445
 20
9.054545084635416
 30
0.0
 10
8.229112413194445
 20
9.054545084635416
 30
0.0
 10
8.260932074652777
 20
9.022725423177082
 30
0.0
 10
8.260932074652777
 20
9.022725423177082
 30
0.0
 10
8.27264404296875
 20
9.011006673177082
 30
0.0
 10
8.291639539930555
 20
9.011006673177082
 30
0.0
 10
8.303358289930555
 20
9.022725423177082
 30
0.0
 10
8.303358289930555
 20
9.022725423177082
 30
0.0
 10
8.363511827256945
 20
9.082878960503471
 30
0.0
 10
8.363511827256945
 20
9.082878960503471
 30
0.0
  0
ENDBLK
  5
341
330
33E
100
AcDbEntity
  8
0
100
AcDbBlockEnd
  0
BLOCK
  5
345
330
343
100
AcDbEntity
  8
0
100
AcDbBlockBegin
  2
block 103
 70
     0
 71
     0
 10
0.0
 20
0.0
 30
0.0
  3
block 103
  1

  0
SPLINE
  5
347
330
343
100
AcDbEntity
  8
SCREWS
 62
     6
420
 16711935
370
    25
100
AcDbSpline
210
0.0
220
0.0
230
1.0
 70
     8
 71
     3
 72
    26
 73
    22
 74
     0
 42
0.0000000001
 43
0.0000000001
 40
0.0
 40
0.0
 40
0.0
 40
0.0
 40
1.0
 40
1.0
 40
1.0
 40
2.0
 40
2.0
 40
2.0
 40
3.0
 40
3.0
 40
3.0
 40
4.0
 40
4.0
 40
4.0
 40
5.0
 40
5.0
 40
5.0
 40
6.0
 40
6.0
 40
6.0
 40
7.0
 40
7.0
 40
7.0
 40
7.0
 10
8.929558648003471
 20
9.208930121527777
 30
0.0
 10
8.929558648003471
 20
9.208930121527777
 30
0.0
 10
8.989718967013888
 20
9.269083658854166
 30
0.0
 10
8.989718967013888
 20
9.269083658854166
 30
0.0
 10
9.001437717013888
 20
9.280802408854166
 30
0.0
 10
9.001437717013888
 20
9.299797905815971
 30
0.0
 10
8.989718967013888
 20
9.311509874131945
 30
0.0
 10
8.989718967013888
 20
9.311509874131945
 30
0.0
 10
8.957899305555555
 20
9.343329535590277
 30
0.0
 10
8.957899305555555
 20
9.343329535590277
 30
0.0
 10
8.957899305555555
 20
9.343329535590277
 30
0.0
 10
8.979112413194445
 20
9.364542643229166
 30
0.0
 10
8.979112413194445
 20
9.364542643229166
 30
0.0
 10
8.979112413194445
 20
9.364542643229166
 30
0.0
 10
9.010932074652777
 20
9.332722981770832
 30
0.0
 10
9.010932074652777
 20
9.332722981770832
 30
0.0
 10
9.022650824652777
 20
9.32101101345486
 30
0.0
 10
9.041639539930555
 20
9.32101101345486
 30
0.0
 10
9.053358289930555
 20
9.332722981770832
 30
0.0
 10
9.053358289930555
 20
9.332722981770832
 30
0.0
 10
9.113511827256945
 20
9.39288330078125
 30
0.0
 10
9.113511827256945
 20
9.39288330078125
 30
0.0
  0
ENDBLK
  5
346
330
343
100
AcDbEntity
  8
0
100
AcDbBlockEnd
  0
BLOCK
  5
34A
330
348
100
AcDbEntity
  8
0
100
AcDbBlockBegin
  2
block 104
 70
     0
 71
     0
 10
0.0
 20
0.0
 30
0.0
  3
block 104
  1

  0
SPLINE
  5
34C
330
348
100
AcDbEntity
  8
SCREWS
 62
     6
420
 16711935
370
    25
100
AcDbSpline
210
0.0
220
0.0
230
1.0
 70
     8
 71
     3
 72
    26
 73
    22
 74
     0
 42
0.0000000001
 43
0.0000000001
 40
0.0
 40
0.0
 40
0.0
 40
0.0
 40
1.0
 40
1.0
 40
1.0
 40
2.0
 40
2.0
 40
2.0
 40
3.0
 40
3.0
 40
3.0
 40
4.0
 40
4.0
 40
4.0
 40
5.0
 40
5.0
 40
5.0
 40
6.0
 40
6.0
 40
6.0
 40
7.0
 40
7.0
 40
7.0
 40
7.0
 10
9.134724934895832
 20
9.37167019314236
 30
0.0
 10
9.134724934895832
 20
9.37167019314236
 30
0.0
 10
9.074571397569445
 20
9.311509874131945
 30
0.0
 10
9.074571397569445
 20
9.311509874131945
 30
0.0
 10
9.062852647569445
 20
9.299797905815971
 30
0.0
 10
9.062852647569445
 20
9.280802408854166
 30
0.0
 10
9.074571397569445
 20
9.269083658854166
 30
0.0
 10
9.074571397569445
 20
9.269083658854166
 30
0.0
 10
9.106391059027777
 20
9.237263997395832
 30
0.0
 10
9.106391059027777
 20
9.237263997395832
 30
0.0
 10
9.106391059027777
 20
9.237263997395832
 30
0.0
 10
9.085177951388888
 20
9.216050889756945
 30
0.0
 10
9.085177951388888
 20
9.216050889756945
 30
0.0
 10
9.085177951388888
 20
9.216050889756945
 30
0.0
 10
9.053358289930555
 20
9.247870551215277
 30
0.0
 10
9.053358289930555
 20
9.247870551215277
 30
0.0
 10
9.041639539930555
 20
9.259589301215277
 30
0.0
 10
9.022650824652777
 20
9.259589301215277
 30
0.0
 10
9.010932074652777
 20
9.247870551215277
 30
0.0
 10
9.010932074652777
 20
9.247870551215277
 30
0.0
 10
8.95077175564236
 20
9.187717013888888
 30
0.0
 10
8.95077175564236
 20
9.187717013888888
 30
0.0
  0
ENDBLK
  5
34B
330
348
100
AcDbEntity
  8
0
100
AcDbBlockEnd
  0
BLOCK
  5
34F
330
34D
100
AcDbEntity
  8
0
100
AcDbBlockBegin
  2
block 105
 70
     0
 71
     0
 10
0.0
 20
0.0
 30
0.0
  3
block 105
  1

  0
SPLINE
  5
351
330
34D
100
AcDbEntity
  8
SCREWS
 62
     6
420
 16711935
370
    25
100
AcDbSpline
210
0.0
220
0.0
230
1.0
 70
    11
 71
     3
 72
    20
 73
    16
 74
     0
 42
0.0000000001
 43
0.0000000001
 40
0.0
 40
0.0
 40
0.0
 40
0.0
 40
1.0
 40
1.0
 40
1.0
 40
2.0
 40
2.0
 40
2.0
 40
3.0
 40
3.0
 40
3.0
 40
4.0
 40
4.0
 40
4.0
 40
5.0
 40
5.0
 40
5.0
 40
5.0
 10
9.1630859375
 20
9.290296766493055
 30
0.0
 10
9.1630859375
 20
9.36260986328125
 30
0.0
 10
9.104465060763888
 20
9.421237521701388
 30
0.0
 10
9.032145182291666
 20
9.421237521701388
 30
0.0
 10
8.959825303819445
 20
9.421237521701388
 30
0.0
 10
8.901204427083332
 20
9.36260986328125
 30
0.0
 10
8.901204427083332
 20
9.290296766493055
 30
0.0
 10
8.901204427083332
 20
9.21798366970486
 30
0.0
 10
8.959825303819445
 20
9.159356011284721
 30
0.0
 10
9.032145182291666
 20
9.159356011284721
 30
0.0
 10
9.104465060763888
 20
9.159356011284721
 30
0.0
 10
9.1630859375
 20
9.21798366970486
 30
0.0
 10
9.1630859375
 20
9.290296766493055
 30
0.0
 10
9.1630859375
 20
9.290296766493055
 30
0.0
 10
9.1630859375
 20
9.290296766493055
 30
0.0
 10
9.1630859375
 20
9.290296766493055
 30
0.0
  0
ENDBLK
  5
350
330
34D
100
AcDbEntity
  8
0
100
AcDbBlockEnd
  0
BLOCK
  5
354
330
352
100
AcDbEntity
  8
0
100
AcDbBlockBegin
  2
block 106
 70
     0
 71
     0
 10
0.0
 20
0.0
 30
0.0
  3
block 106
  1

  0
SPLINE
  5
356
330
352
100
AcDbEntity
  8
SCREWS
 62
     6
420
 16711935
370
    25
100
AcDbSpline
210
0.0
220
0.0
230
1.0
 70
     8
 71
     3
 72
    26
 73
    22
 74
     0
 42
0.0000000001
 43
0.0000000001
 40
0.0
 40
0.0
 40
0.0
 40
0.0
 40
1.0
 40
1.0
 40
1.0
 40
2.0
 40
2.0
 40
2.0
 40
3.0
 40
3.0
 40
3.0
 40
4.0
 40
4.0
 40
4.0
 40
5.0
 40
5.0
 40
5.0
 40
6.0
 40
6.0
 40
6.0
 40
7.0
 40
7.0
 40
7.0
 40
7.0
 10
8.554558648003471
 20
9.208930121527777
 30
0.0
 10
8.554558648003471
 20
9.208930121527777
 30
0.0
 10
8.61471896701389
 20
9.269083658854166
 30
0.0
 10
8.61471896701389
 20
9.269083658854166
 30
0.0
 10
8.62643093532986
 20
9.280802408854166
 30
0.0
 10
8.62643093532986
 20
9.299797905815971
 30
0.0
 10
8.61471896701389
 20
9.311509874131945
 30
0.0
 10
8.61471896701389
 20
9.311509874131945
 30
0.0
 10
8.582899305555555
 20
9.343329535590277
 30
0.0
 10
8.582899305555555
 20
9.343329535590277
 30
0.0
 10
8.582899305555555
 20
9.343329535590277
 30
0.0
 10
8.604112413194445
 20
9.364542643229166
 30
0.0
 10
8.604112413194445
 20
9.364542643229166
 30
0.0
 10
8.604112413194445
 20
9.364542643229166
 30
0.0
 10
8.635932074652777
 20
9.332722981770832
 30
0.0
 10
8.635932074652777
 20
9.332722981770832
 30
0.0
 10
8.64764404296875
 20
9.32101101345486
 30
0.0
 10
8.666639539930555
 20
9.32101101345486
 30
0.0
 10
8.678358289930555
 20
9.332722981770832
 30
0.0
 10
8.678358289930555
 20
9.332722981770832
 30
0.0
 10
8.738511827256945
 20
9.39288330078125
 30
0.0
 10
8.738511827256945
 20
9.39288330078125
 30
0.0
  0
ENDBLK
  5
355
330
352
100
AcDbEntity
  8
0
100
AcDbBlockEnd
  0
BLOCK
  5
359
330
357
100
AcDbEntity
  8
0
100
AcDbBlockBegin
  2
block 107
 70
     0
 71
     0
 10
0.0
 20
0.0
 30
0.0
  3
block 107
  1

  0
SPLINE
  5
35B
330
357
100
AcDbEntity
  8
SCREWS
 62
     6
420
 16711935
370
    25
100
AcDbSpline
210
0.0
220
0.0
230
1.0
 70
     8
 71
     3
 72
    26
 73
    22
 74
     0
 42
0.0000000001
 43
0.0000000001
 40
0.0
 40
0.0
 40
0.0
 40
0.0
 40
1.0
 40
1.0
 40
1.0
 40
2.0
 40
2.0
 40
2.0
 40
3.0
 40
3.0
 40
3.0
 40
4.0
 40
4.0
 40
4.0
 40
5.0
 40
5.0
 40
5.0
 40
6.0
 40
6.0
 40
6.0
 40
7.0
 40
7.0
 40
7.0
 40
7.0
 10
8.759724934895832
 20
9.37167019314236
 30
0.0
 10
8.759724934895832
 20
9.37167019314236
 30
0.0
 10
8.699571397569445
 20
9.311509874131945
 30
0.0
 10
8.699571397569445
 20
9.311509874131945
 30
0.0
 10
8.687852647569445
 20
9.299797905815971
 30
0.0
 10
8.687852647569445
 20
9.280802408854166
 30
0.0
 10
8.699571397569445
 20
9.269083658854166
 30
0.0
 10
8.699571397569445
 20
9.269083658854166
 30
0.0
 10
8.731391059027777
 20
9.237263997395832
 30
0.0
 10
8.731391059027777
 20
9.237263997395832
 30
0.0
 10
8.731391059027777
 20
9.237263997395832
 30
0.0
 10
8.71017795138889
 20
9.216050889756945
 30
0.0
 10
8.71017795138889
 20
9.216050889756945
 30
0.0
 10
8.71017795138889
 20
9.216050889756945
 30
0.0
 10
8.678358289930555
 20
9.247870551215277
 30
0.0
 10
8.678358289930555
 20
9.247870551215277
 30
0.0
 10
8.666639539930555
 20
9.259589301215277
 30
0.0
 10
8.64764404296875
 20
9.259589301215277
 30
0.0
 10
8.635932074652777
 20
9.247870551215277
 30
0.0
 10
8.635932074652777
 20
9.247870551215277
 30
0.0
 10
8.57577175564236
 20
9.187717013888888
 30
0.0
 10
8.57577175564236
 20
9.187717013888888
 30
0.0
  0
ENDBLK
  5
35A
330
357
100
AcDbEntity
  8
0
100
AcDbBlockEnd
  0
BLOCK
  5
35E
330
35C
100
AcDbEntity
  8
0
100
AcDbBlockBegin
  2
block 108
 70
     0
 71
     0
 10
0.0
 20
0.0
 30
0.0
  3
block 108
  1

  0
SPLINE
  5
360
330
35C
100
AcDbEntity
  8
SCREWS
 62
     6
420
 16711935
370
    25
100
AcDbSpline
210
0.0
220
0.0
230
1.0
 70
    11
 71
     3
 72
    20
 73
    16
 74
     0
 42
0.0000000001
 43
0.0000000001
 40
0.0
 40
0.0
 40
0.0
 40
0.0
 40
1.0
 40
1.0
 40
1.0
 40
2.0
 40
2.0
 40
2.0
 40
3.0
 40
3.0
 40
3.0
 40
4.0
 40
4.0
 40
4.0
 40
5.0
 40
5.0
 40
5.0
 40
5.0
 10
8.788079155815971
 20
9.290296766493055
 30
0.0
 10
8.788079155815971
 20
9.36260986328125
 30
0.0
 10
8.72945827907986
 20
9.421237521701388
 30
0.0
 10
8.657145182291666
 20
9.421237521701388
 30
0.0
 10
8.584825303819445
 20
9.421237521701388
 30
0.0
 10
8.526204427083332
 20
9.36260986328125
 30
0.0
 10
8.526204427083332
 20
9.290296766493055
 30
0.0
 10
8.526204427083332
 20
9.21798366970486
 30
0.0
 10
8.584825303819445
 20
9.159356011284721
 30
0.0
 10
8.657145182291666
 20
9.159356011284721
 30
0.0
 10
8.72945827907986
 20
9.159356011284721
 30
0.0
 10
8.788079155815971
 20
9.21798366970486
 30
0.0
 10
8.788079155815971
 20
9.290296766493055
 30
0.0
 10
8.788079155815971
 20
9.290296766493055
 30
0.0
 10
8.788079155815971
 20
9.290296766493055
 30
0.0
 10
8.788079155815971
 20
9.290296766493055
 30
0.0
  0
ENDBLK
  5
35F
330
35C
100
AcDbEntity
  8
0
100
AcDbBlockEnd
  0
BLOCK
  5
363
330
361
100
AcDbEntity
  8
0
100
AcDbBlockBegin
  2
block 109
 70
     0
 71
     0
 10
0.0
 20
0.0
 30
0.0
  3
block 109
  1

  0
SPLINE
  5
365
330
361
100
AcDbEntity
  8
SCREWS
 62
     6
420
 16711935
370
    25
100
AcDbSpline
210
0.0
220
0.0
230
1.0
 70
    11
 71
     3
 72
    20
 73
    16
 74
     0
 42
0.0000000001
 43
0.0000000001
 40
0.0
 40
0.0
 40
0.0
 40
0.0
 40
1.0
 40
1.0
 40
1.0
 40
2.0
 40
2.0
 40
2.0
 40
3.0
 40
3.0
 40
3.0
 40
4.0
 40
4.0
 40
4.0
 40
5.0
 40
5.0
 40
5.0
 40
5.0
 10
9.1630859375
 20
8.980292426215277
 30
0.0
 10
9.1630859375
 20
9.0526123046875
 30
0.0
 10
9.104465060763888
 20
9.11123318142361
 30
0.0
 10
9.032145182291666
 20
9.11123318142361
 30
0.0
 10
8.959825303819445
 20
9.11123318142361
 30
0.0
 10
8.901204427083332
 20
9.0526123046875
 30
0.0
 10
8.901204427083332
 20
8.980292426215277
 30
0.0
 10
8.901204427083332
 20
8.90798611111111
 30
0.0
 10
8.959825303819445
 20
8.849365234375
 30
0.0
 10
9.032145182291666
 20
8.849365234375
 30
0.0
 10
9.104465060763888
 20
8.849365234375
 30
0.0
 10
9.1630859375
 20
8.90798611111111
 30
0.0
 10
9.1630859375
 20
8.980292426215277
 30
0.0
 10
9.1630859375
 20
8.980292426215277
 30
0.0
 10
9.1630859375
 20
8.980292426215277
 30
0.0
 10
9.1630859375
 20
8.980292426215277
 30
0.0
  0
ENDBLK
  5
364
330
361
100
AcDbEntity
  8
0
100
AcDbBlockEnd
  0
BLOCK
  5
368
330
366
100
AcDbEntity
  8
0
100
AcDbBlockBegin
  2
block 110
 70
     0
 71
     0
 10
0.0
 20
0.0
 30
0.0
  3
block 110
  1

  0
SPLINE
  5
36A
330
366
100
AcDbEntity
  8
SCREWS
 62
     6
420
 16711935
370
    25
100
AcDbSpline
210
0.0
220
0.0
230
1.0
 70
     8
 71
     3
 72
    26
 73
    22
 74
     0
 42
0.0000000001
 43
0.0000000001
 40
0.0
 40
0.0
 40
0.0
 40
0.0
 40
1.0
 40
1.0
 40
1.0
 40
2.0
 40
2.0
 40
2.0
 40
3.0
 40
3.0
 40
3.0
 40
4.0
 40
4.0
 40
4.0
 40
5.0
 40
5.0
 40
5.0
 40
6.0
 40
6.0
 40
6.0
 40
7.0
 40
7.0
 40
7.0
 40
7.0
 10
9.134724934895832
 20
9.061665852864582
 30
0.0
 10
9.134724934895832
 20
9.061665852864582
 30
0.0
 10
9.074571397569445
 20
9.001512315538195
 30
0.0
 10
9.074571397569445
 20
9.001512315538195
 30
0.0
 10
9.062852647569445
 20
8.989800347222221
 30
0.0
 10
9.062852647569445
 20
8.970798068576388
 30
0.0
 10
9.074571397569445
 20
8.959079318576388
 30
0.0
 10
9.074571397569445
 20
8.959079318576388
 30
0.0
 10
9.106391059027777
 20
8.927259657118055
 30
0.0
 10
9.106391059027777
 20
8.927259657118055
 30
0.0
 10
9.106391059027777
 20
8.927259657118055
 30
0.0
 10
9.085177951388888
 20
8.906046549479166
 30
0.0
 10
9.085177951388888
 20
8.906046549479166
 30
0.0
 10
9.085177951388888
 20
8.906046549479166
 30
0.0
 10
9.053358289930555
 20
8.9378662109375
 30
0.0
 10
9.053358289930555
 20
8.9378662109375
 30
0.0
 10
9.041639539930555
 20
8.9495849609375
 30
0.0
 10
9.022650824652777
 20
8.9495849609375
 30
0.0
 10
9.010932074652777
 20
8.9378662109375
 30
0.0
 10
9.010932074652777
 20
8.9378662109375
 30
0.0
 10
8.95077175564236
 20
8.87771267361111
 30
0.0
 10
8.95077175564236
 20
8.87771267361111
 30
0.0
  0
ENDBLK
  5
369
330
366
100
AcDbEntity
  8
0
100
AcDbBlockEnd
  0
BLOCK
  5
36D
330
36B
100
AcDbEntity
  8
0
100
AcDbBlockBegin
  2
block 111
 70
     0
 71
     0
 10
0.0
 20
0.0
 30
0.0
  3
block 111
  1

  0
SPLINE
  5
36F
330
36B
100
AcDbEntity
  8
SCREWS
 62
     6
420
 16711935
370
    25
100
AcDbSpline
210
0.0
220
0.0
230
1.0
 70
     8
 71
     3
 72
    26
 73
    22
 74
     0
 42
0.0000000001
 43
0.0000000001
 40
0.0
 40
0.0
 40
0.0
 40
0.0
 40
1.0
 40
1.0
 40
1.0
 40
2.0
 40
2.0
 40
2.0
 40
3.0
 40
3.0
 40
3.0
 40
4.0
 40
4.0
 40
4.0
 40
5.0
 40
5.0
 40
5.0
 40
6.0
 40
6.0
 40
6.0
 40
7.0
 40
7.0
 40
7.0
 40
7.0
 10
8.929558648003471
 20
8.89892578125
 30
0.0
 10
8.929558648003471
 20
8.89892578125
 30
0.0
 10
8.989718967013888
 20
8.959079318576388
 30
0.0
 10
8.989718967013888
 20
8.959079318576388
 30
0.0
 10
9.001437717013888
 20
8.970798068576388
 30
0.0
 10
9.001437717013888
 20
8.989800347222221
 30
0.0
 10
8.989718967013888
 20
9.001512315538195
 30
0.0
 10
8.989718967013888
 20
9.001512315538195
 30
0.0
 10
8.957899305555555
 20
9.033331976996527
 30
0.0
 10
8.957899305555555
 20
9.033331976996527
 30
0.0
 10
8.957899305555555
 20
9.033331976996527
 30
0.0
 10
8.979112413194445
 20
9.054545084635416
 30
0.0
 10
8.979112413194445
 20
9.054545084635416
 30
0.0
 10
8.979112413194445
 20
9.054545084635416
 30
0.0
 10
9.010932074652777
 20
9.022725423177082
 30
0.0
 10
9.010932074652777
 20
9.022725423177082
 30
0.0
 10
9.022650824652777
 20
9.011006673177082
 30
0.0
 10
9.041639539930555
 20
9.011006673177082
 30
0.0
 10
9.053358289930555
 20
9.022725423177082
 30
0.0
 10
9.053358289930555
 20
9.022725423177082
 30
0.0
 10
9.113511827256945
 20
9.082878960503471
 30
0.0
 10
9.113511827256945
 20
9.082878960503471
 30
0.0
  0
ENDBLK
  5
36E
330
36B
100
AcDbEntity
  8
0
100
AcDbBlockEnd
  0
BLOCK
  5
372
330
370
100
AcDbEntity
  8
0
100
AcDbBlockBegin
  2
block 112
 70
     0
 71
     0
 10
0.0
 20
0.0
 30
0.0
  3
block 112
  1

  0
SPLINE
  5
374
330
370
100
AcDbEntity
  8
SCREWS
 62
     6
420
 16711935
370
    25
100
AcDbSpline
210
0.0
220
0.0
230
1.0
 70
    11
 71
     3
 72
    20
 73
    16
 74
     0
 42
0.0000000001
 43
0.0000000001
 40
0.0
 40
0.0
 40
0.0
 40
0.0
 40
1.0
 40
1.0
 40
1.0
 40
2.0
 40
2.0
 40
2.0
 40
3.0
 40
3.0
 40
3.0
 40
4.0
 40
4.0
 40
4.0
 40
5.0
 40
5.0
 40
5.0
 40
5.0
 10
8.788079155815971
 20
8.980292426215277
 30
0.0
 10
8.788079155815971
 20
9.0526123046875
 30
0.0
 10
8.72945827907986
 20
9.11123318142361
 30
0.0
 10
8.657145182291666
 20
9.11123318142361
 30
0.0
 10
8.584825303819445
 20
9.11123318142361
 30
0.0
 10
8.526204427083332
 20
9.0526123046875
 30
0.0
 10
8.526204427083332
 20
8.980292426215277
 30
0.0
 10
8.526204427083332
 20
8.90798611111111
 30
0.0
 10
8.584825303819445
 20
8.849365234375
 30
0.0
 10
8.657145182291666
 20
8.849365234375
 30
0.0
 10
8.72945827907986
 20
8.849365234375
 30
0.0
 10
8.788079155815971
 20
8.90798611111111
 30
0.0
 10
8.788079155815971
 20
8.980292426215277
 30
0.0
 10
8.788079155815971
 20
8.980292426215277
 30
0.0
 10
8.788079155815971
 20
8.980292426215277
 30
0.0
 10
8.788079155815971
 20
8.980292426215277
 30
0.0
  0
ENDBLK
  5
373
330
370
100
AcDbEntity
  8
0
100
AcDbBlockEnd
  0
BLOCK
  5
377
330
375
100
AcDbEntity
  8
0
100
AcDbBlockBegin
  2
block 113
 70
     0
 71
     0
 10
0.0
 20
0.0
 30
0.0
  3
block 113
  1

  0
SPLINE
  5
379
330
375
100
AcDbEntity
  8
SCREWS
 62
     6
420
 16711935
370
    25
100
AcDbSpline
210
0.0
220
0.0
230
1.0
 70
     8
 71
     3
 72
    26
 73
    22
 74
     0
 42
0.0000000001
 43
0.0000000001
 40
0.0
 40
0.0
 40
0.0
 40
0.0
 40
1.0
 40
1.0
 40
1.0
 40
2.0
 40
2.0
 40
2.0
 40
3.0
 40
3.0
 40
3.0
 40
4.0
 40
4.0
 40
4.0
 40
5.0
 40
5.0
 40
5.0
 40
6.0
 40
6.0
 40
6.0
 40
7.0
 40
7.0
 40
7.0
 40
7.0
 10
8.759724934895832
 20
9.061665852864582
 30
0.0
 10
8.759724934895832
 20
9.061665852864582
 30
0.0
 10
8.699571397569445
 20
9.001512315538195
 30
0.0
 10
8.699571397569445
 20
9.001512315538195
 30
0.0
 10
8.687852647569445
 20
8.989800347222221
 30
0.0
 10
8.687852647569445
 20
8.970798068576388
 30
0.0
 10
8.699571397569445
 20
8.959079318576388
 30
0.0
 10
8.699571397569445
 20
8.959079318576388
 30
0.0
 10
8.731391059027777
 20
8.927259657118055
 30
0.0
 10
8.731391059027777
 20
8.927259657118055
 30
0.0
 10
8.731391059027777
 20
8.927259657118055
 30
0.0
 10
8.71017795138889
 20
8.906046549479166
 30
0.0
 10
8.71017795138889
 20
8.906046549479166
 30
0.0
 10
8.71017795138889
 20
8.906046549479166
 30
0.0
 10
8.678358289930555
 20
8.9378662109375
 30
0.0
 10
8.678358289930555
 20
8.9378662109375
 30
0.0
 10
8.666639539930555
 20
8.9495849609375
 30
0.0
 10
8.64764404296875
 20
8.9495849609375
 30
0.0
 10
8.635932074652777
 20
8.9378662109375
 30
0.0
 10
8.635932074652777
 20
8.9378662109375
 30
0.0
 10
8.57577175564236
 20
8.87771267361111
 30
0.0
 10
8.57577175564236
 20
8.87771267361111
 30
0.0
  0
ENDBLK
  5
378
330
375
100
AcDbEntity
  8
0
100
AcDbBlockEnd
  0
BLOCK
  5
37C
330
37A
100
AcDbEntity
  8
0
100
AcDbBlockBegin
  2
block 114
 70
     0
 71
     0
 10
0.0
 20
0.0
 30
0.0
  3
block 114
  1

  0
SPLINE
  5
37E
330
37A
100
AcDbEntity
  8
SCREWS
 62
     6
420
 16711935
370
    25
100
AcDbSpline
210
0.0
220
0.0
230
1.0
 70
     8
 71
     3
 72
    26
 73
    22
 74
     0
 42
0.0000000001
 43
0.0000000001
 40
0.0
 40
0.0
 40
0.0
 40
0.0
 40
1.0
 40
1.0
 40
1.0
 40
2.0
 40
2.0
 40
2.0
 40
3.0
 40
3.0
 40
3.0
 40
4.0
 40
4.0
 40
4.0
 40
5.0
 40
5.0
 40
5.0
 40
6.0
 40
6.0
 40
6.0
 40
7.0
 40
7.0
 40
7.0
 40
7.0
 10
8.554558648003471
 20
8.89892578125
 30
0.0
 10
8.554558648003471
 20
8.89892578125
 30
0.0
 10
8.61471896701389
 20
8.959079318576388
 30
0.0
 10
8.61471896701389
 20
8.959079318576388
 30
0.0
 10
8.62643093532986
 20
8.970798068576388
 30
0.0
 10
8.62643093532986
 20
8.989800347222221
 30
0.0
 10
8.61471896701389
 20
9.001512315538195
 30
0.0
 10
8.61471896701389
 20
9.001512315538195
 30
0.0
 10
8.582899305555555
 20
9.033331976996527
 30
0.0
 10
8.582899305555555
 20
9.033331976996527
 30
0.0
 10
8.582899305555555
 20
9.033331976996527
 30
0.0
 10
8.604112413194445
 20
9.054545084635416
 30
0.0
 10
8.604112413194445
 20
9.054545084635416
 30
0.0
 10
8.604112413194445
 20
9.054545084635416
 30
0.0
 10
8.635932074652777
 20
9.022725423177082
 30
0.0
 10
8.635932074652777
 20
9.022725423177082
 30
0.0
 10
8.64764404296875
 20
9.011006673177082
 30
0.0
 10
8.666639539930555
 20
9.011006673177082
 30
0.0
 10
8.678358289930555
 20
9.022725423177082
 30
0.0
 10
8.678358289930555
 20
9.022725423177082
 30
0.0
 10
8.738511827256945
 20
9.082878960503471
 30
0.0
 10
8.738511827256945
 20
9.082878960503471
 30
0.0
  0
ENDBLK
  5
37D
330
37A
100
AcDbEntity
  8
0
100
AcDbBlockEnd
  0
ENDSEC
  0
SECTION
  2
ENTITIES
  0
INSERT
  5
3D
330
1F
100
AcDbEntity
  8
DIMLAY
100
AcDbBlockReference
  2
block 2
 10
0.0
 20
0.0
 30
0.0
  0
INSERT
  5
95
330
1F
100
AcDbEntity
  8
DIMLAY
100
AcDbBlockReference
  2
block 13
 10
0.0
 20
0.0
 30
0.0
  0
INSERT
  5
ED
330
1F
100
AcDbEntity
  8
DIMLAY
100
AcDbBlockReference
  2
block 24
 10
0.0
 20
0.0
 30
0.0
  0
INSERT
  5
145
330
1F
100
AcDbEntity
  8
DIMLAY
100
AcDbBlockReference
  2
block 35
 10
0.0
 20
0.0
 30
0.0
  0
INSERT
  5
158
330
1F
100
AcDbEntity
  8
DIMLAY
100
AcDbBlockReference
  2
block 36
 10
0.0
 20
0.0
 30
0.0
  0
INSERT
  5
15E
330
1F
100
AcDbEntity
  8
DIMLAY
100
AcDbBlockReference
  2
block 37
 10
0.0
 20
0.0
 30
0.0
  0
INSERT
  5
169
330
1F
100
AcDbEntity
  8
DIMLAY
100
AcDbBlockReference
  2
block 38
 10
0.0
 20
0.0
 30
0.0
  0
INSERT
  5
174
330
1F
100
AcDbEntity
  8
DIMLAY
100
AcDbBlockReference
  2
block 39
 10
0.0
 20
0.0
 30
0.0
  0
INSERT
  5
17C
330
1F
100
AcDbEntity
  8
DIMLAY
100
AcDbBlockReference
  2
block 40
 10
0.0
 20
0.0
 30
0.0
  0
INSERT
  5
184
330
1F
100
AcDbEntity
  8
DIMLAY
100
AcDbBlockReference
  2
block 41
 10
0.0
 20
0.0
 30
0.0
  0
INSERT
  5
18C
330
1F
100
AcDbEntity
  8
DIMLAY
100
AcDbBlockReference
  2
block 42
 10
0.0
 20
0.0
 30
0.0
  0
INSERT
  5
194
330
1F
100
AcDbEntity
  8
DIMLAY
100
AcDbBlockReference
  2
block 43
 10
0.0
 20
0.0
 30
0.0
  0
INSERT
  5
19C
330
1F
100
AcDbEntity
  8
DIMLAY
100
AcDbBlockReference
  2
block 44
 10
0.0
 20
0.0
 30
0.0
  0
INSERT
  5
1A4
330
1F
100
AcDbEntity
  8
DIMLAY
100
AcDbBlockReference
  2
block 45
 10
0.0
 20
0.0
 30
0.0
  0
INSERT
  5
1AC
330
1F
100
AcDbEntity
  8
DIMLAY
100
AcDbBlockReference
  2
block 46
 10
0.0
 20
0.0
 30
0.0
  0
INSERT
  5
1B4
330
1F
100
AcDbEntity
  8
DIMLAY
100
AcDbBlockReference
  2
block 47
 10
0.0
 20
0.0
 30
0.0
  0
INSERT
  5
1B9
330
1F
100
AcDbEntity
  8
DIMLAY
100
AcDbBlockReference
  2
block 48
 10
0.0
 20
0.0
 30
0.0
  0
INSERT
  5
1CC
330
1F
100
AcDbEntity
  8
DIMLAY
100
AcDbBlockReference
  2
block 49
 10
0.0
 20
0.0
 30
0.0
  0
INSERT
  5
1D2
330
1F
100
AcDbEntity
  8
DIMLAY
100
AcDbBlockReference
  2
block 50
 10
0.0
 20
0.0
 30
0.0
  0
INSERT
  5
1DA
330
1F
100
AcDbEntity
  8
DIMLAY
100
AcDbBlockReference
  2
block 51
 10
0.0
 20
0.0
 30
0.0
  0
INSERT
  5
1E2
330
1F
100
AcDbEntity
  8
DIMLAY
100
AcDbBlockReference
  2
block 52
 10
0.0
 20
0.0
 30
0.0
  0
INSERT
  5
1EA
330
1F
100
AcDbEntity
  8
DIMLAY
100
AcDbBlockReference
  2
block 53
 10
0.0
 20
0.0
 30
0.0
  0
INSERT
  5
1F2
330
1F
100
AcDbEntity
  8
DIMLAY
100
AcDbBlockReference
  2
block 54
 10
0.0
 20
0.0
 30
0.0
  0
INSERT
  5
1FA
330
1F
100
AcDbEntity
  8
DIMLAY
100
AcDbBlockReference
  2
block 55
 10
0.0
 20
0.0
 30
0.0
  0
INSERT
  5
202
330
1F
100
AcDbEntity
  8
DIMLAY
100
AcDbBlockReference
  2
block 56
 10
0.0
 20
0.0
 30
0.0
  0
INSERT
  5
20D
330
1F
100
AcDbEntity
  8
DIMLAY
100
AcDbBlockReference
  2
block 57
 10
0.0
 20
0.0
 30
0.0
  0
INSERT
  5
215
330
1F
100
AcDbEntity
  8
DIMLAY
100
AcDbBlockReference
  2
block 58
 10
0.0
 20
0.0
 30
0.0
  0
INSERT
  5
220
330
1F
100
AcDbEntity
  8
DIMLAY
100
AcDbBlockReference
  2
block 59
 10
0.0
 20
0.0
 30
0.0
  0
INSERT
  5
228
330
1F
100
AcDbEntity
  8
DIMLAY
100
AcDbBlockReference
  2
block 60
 10
0.0
 20
0.0
 30
0.0
  0
INSERT
  5
22F
330
1F
100
AcDbEntity
  8
PART
100
AcDbBlockReference
  2
block 61
 10
0.0
 20
0.0
 30
0.0
  0
INSERT
  5
23A
330
1F
100
AcDbEntity
  8
PART
100
AcDbBlockReference
  2
block 62
 10
0.0
 20
0.0
 30
0.0
  0
INSERT
  5
242
330
1F
100
AcDbEntity
  8
PART
100
AcDbBlockReference
  2
block 63
 10
0.0
 20
0.0
 30
0.0
  0
INSERT
  5
24A
330
1F
100
AcDbEntity
  8
PART
100
AcDbBlockReference
  2
block 64
 10
0.0
 20
0.0
 30
0.0
  0
INSERT
  5
24F
330
1F
100
AcDbEntity
  8
PART
100
AcDbBlockReference
  2
block 65
 10
0.0
 20
0.0
 30
0.0
  0
INSERT
  5
254
330
1F
100
AcDbEntity
  8
PART
100
AcDbBlockReference
  2
block 66
 10
0.0
 20
0.0
 30
0.0
  0
INSERT
  5
259
330
1F
100
AcDbEntity
  8
PART
100
AcDbBlockReference
  2
block 67
 10
0.0
 20
0.0
 30
0.0
  0
INSERT
  5
25E
330
1F
100
AcDbEntity
  8
PART
100
AcDbBlockReference
  2
block 68
 10
0.0
 20
0.0
 30
0.0
  0
INSERT
  5
263
330
1F
100
AcDbEntity
  8
PART
100
AcDbBlockReference
  2
block 69
 10
0.0
 20
0.0
 30
0.0
  0
INSERT
  5
26B
330
1F
100
AcDbEntity
  8
PART
100
AcDbBlockReference
  2
block 70
 10
0.0
 20
0.0
 30
0.0
  0
INSERT
  5
273
330
1F
100
AcDbEntity
  8
PART
100
AcDbBlockReference
  2
block 71
 10
0.0
 20
0.0
 30
0.0
  0
INSERT
  5
27B
330
1F
100
AcDbEntity
  8
PART
100
AcDbBlockReference
  2
block 72
 10
0.0
 20
0.0
 30
0.0
  0
INSERT
  5
283
330
1F
100
AcDbEntity
  8
PART
100
AcDbBlockReference
  2
block 73
 10
0.0
 20
0.0
 30
0.0
  0
INSERT
  5
28B
330
1F
100
AcDbEntity
  8
PART
100
AcDbBlockReference
  2
block 74
 10
0.0
 20
0.0
 30
0.0
  0
INSERT
  5
293
330
1F
100
AcDbEntity
  8
PART
100
AcDbBlockReference
  2
block 75
 10
0.0
 20
0.0
 30
0.0
  0
INSERT
  5
29B
330
1F
100
AcDbEntity
  8
PART
100
AcDbBlockReference
  2
block 76
 10
0.0
 20
0.0
 30
0.0
  0
INSERT
  5
2A3
330
1F
100
AcDbEntity
  8
PART
100
AcDbBlockReference
  2
block 77
 10
0.0
 20
0.0
 30
0.0
  0
INSERT
  5
2AB
330
1F
100
AcDbEntity
  8
PART
100
AcDbBlockReference
  2
block 78
 10
0.0
 20
0.0
 30
0.0
  0
INSERT
  5
2B3
330
1F
100
AcDbEntity
  8
PART
100
AcDbBlockReference
  2
block 79
 10
0.0
 20
0.0
 30
0.0
  0
INSERT
  5
2B8
330
1F
100
AcDbEntity
  8
PART
100
AcDbBlockReference
  2
block 80
 10
0.0
 20
0.0
 30
0.0
  0
INSERT
  5
2BD
330
1F
100
AcDbEntity
  8
PART
100
AcDbBlockReference
  2
block 81
 10
0.0
 20
0.0
 30
0.0
  0
INSERT
  5
2C2
330
1F
100
AcDbEntity
  8
PART
100
AcDbBlockReference
  2
block 82
 10
0.0
 20
0.0
 30
0.0
  0
INSERT
  5
2C7
330
1F
100
AcDbEntity
  8
PART
100
AcDbBlockReference
  2
block 83
 10
0.0
 20
0.0
 30
0.0
  0
INSERT
  5
2CF
330
1F
100
AcDbEntity
  8
PART
100
AcDbBlockReference
  2
block 84
 10
0.0
 20
0.0
 30
0.0
  0
INSERT
  5
2D7
330
1F
100
AcDbEntity
  8
PART
100
AcDbBlockReference
  2
block 85
 10
0.0
 20
0.0
 30
0.0
  0
INSERT
  5
2DF
330
1F
100
AcDbEntity
  8
PART
100
AcDbBlockReference
  2
block 86
 10
0.0
 20
0.0
 30
0.0
  0
INSERT
  5
2E7
330
1F
100
AcDbEntity
  8
PART
100
AcDbBlockReference
  2
block 87
 10
0.0
 20
0.0
 30
0.0
  0
INSERT
  5
2EF
330
1F
100
AcDbEntity
  8
PART
100
AcDbBlockReference
  2
block 88
 10
0.0
 20
0.0
 30
0.0
  0
INSERT
  5
2F7
330
1F
100
AcDbEntity
  8
PART
100
AcDbBlockReference
  2
block 89
 10
0.0
 20
0.0
 30
0.0
  0
INSERT
  5
2FF
330
1F
100
AcDbEntity
  8
PART
100
AcDbBlockReference
  2
block 90
 10
0.0
 20
0.0
 30
0.0
  0
INSERT
  5
308
330
1F
100
AcDbEntity
  8
SCREWS
100
AcDbBlockReference
  2
block 91
 10
0.0
 20
0.0
 30
0.0
  0
INSERT
  5
30D
330
1F
100
AcDbEntity
  8
SCREWS
100
AcDbBlockReference
  2
block 92
 10
0.0
 20
0.0
 30
0.0
  0
INSERT
  5
312
330
1F
100
AcDbEntity
  8
SCREWS
100
AcDbBlockReference
  2
block 93
 10
0.0
 20
0.0
 30
0.0
  0
INSERT
  5
317
330
1F
100
AcDbEntity
  8
SCREWS
100
AcDbBlockReference
  2
block 94
 10
0.0
 20
0.0
 30
0.0
  0
INSERT
  5
31C
330
1F
100
AcDbEntity
  8
SCREWS
100
AcDbBlockReference
  2
block 95
 10
0.0
 20
0.0
 30
0.0
  0
INSERT
  5
321
330
1F
100
AcDbEntity
  8
SCREWS
100
AcDbBlockReference
  2
block 96
 10
0.0
 20
0.0
 30
0.0
  0
INSERT
  5
326
330
1F
100
AcDbEntity
  8
SCREWS
100
AcDbBlockReference
  2
block 97
 10
0.0
 20
0.0
 30
0.0
  0
INSERT
  5
32B
330
1F
100
AcDbEntity
  8
SCREWS
100
AcDbBlockReference
  2
block 98
 10
0.0
 20
0.0
 30
0.0
  0
INSERT
  5
330
330
1F
100
AcDbEntity
  8
SCREWS
100
AcDbBlockReference
  2
block 99
 10
0.0
 20
0.0
 30
0.0
  0
INSERT
  5
335
330
1F
100
AcDbEntity
  8
SCREWS
100
AcDbBlockReference
  2
block 100
 10
0.0
 20
0.0
 30
0.0
  0
INSERT
  5
33A
330
1F
100
AcDbEntity
  8
SCREWS
100
AcDbBlockReference
  2
block 101
 10
0.0
 20
0.0
 30
0.0
  0
INSERT
  5
33F
330
1F
100
AcDbEntity
  8
SCREWS
100
AcDbBlockReference
  2
block 102
 10
0.0
 20
0.0
 30
0.0
  0
INSERT
  5
344
330
1F
100
AcDbEntity
  8
SCREWS
100
AcDbBlockReference
  2
block 103
 10
0.0
 20
0.0
 30
0.0
  0
INSERT
  5
349
330
1F
100
AcDbEntity
  8
SCREWS
100
AcDbBlockReference
  2
block 104
 10
0.0
 20
0.0
 30
0.0
  0
INSERT
  5
34E
330
1F
100
AcDbEntity
  8
SCREWS
100
AcDbBlockReference
  2
block 105
 10
0.0
 20
0.0
 30
0.0
  0
INSERT
  5
353
330
1F
100
AcDbEntity
  8
SCREWS
100
AcDbBlockReference
  2
block 106
 10
0.0
 20
0.0
 30
0.0
  0
INSERT
  5
358
330
1F
100
AcDbEntity
  8
SCREWS
100
AcDbBlockReference
  2
block 107
 10
0.0
 20
0.0
 30
0.0
  0
INSERT
  5
35D
330
1F
100
AcDbEntity
  8
SCREWS
100
AcDbBlockReference
  2
block 108
 10
0.0
 20
0.0
 30
0.0
  0
INSERT
  5
362
330
1F
100
AcDbEntity
  8
SCREWS
100
AcDbBlockReference
  2
block 109
 10
0.0
 20
0.0
 30
0.0
  0
INSERT
  5
367
330
1F
100
AcDbEntity
  8
SCREWS
100
AcDbBlockReference
  2
block 110
 10
0.0
 20
0.0
 30
0.0
  0
INSERT
  5
36C
330
1F
100
AcDbEntity
  8
SCREWS
100
AcDbBlockReference
  2
block 111
 10
0.0
 20
0.0
 30
0.0
  0
INSERT
  5
371
330
1F
100
AcDbEntity
  8
SCREWS
100
AcDbBlockReference
  2
block 112
 10
0.0
 20
0.0
 30
0.0
  0
INSERT
  5
376
330
1F
100
AcDbEntity
  8
SCREWS
100
AcDbBlockReference
  2
block 113
 10
0.0
 20
0.0
 30
0.0
  0
INSERT
  5
37B
330
1F
100
AcDbEntity
  8
SCREWS
100
AcDbBlockReference
  2
block 114
 10
0.0
 20
0.0
 30
0.0
  0
ENDSEC
  0
SECTION
  2
OBJECTS
  0
DICTIONARY
  5
C
330
0
100
AcDbDictionary
281
     1
  3
ACAD_GROUP
350
D
  3
ACAD_LAYOUT
350
1A
  3
ACAD_MLINESTYLE
350
17
  3
ACAD_PLOTSETTINGS
350
19
  3
ACAD_PLOTSTYLENAME
350
E
  3
ACAD_TABLESTYLE
350
37F
  3
ACAD_VISUALSTYLE
350
2A
  0
DICTIONARY
  5
D
102
{ACAD_REACTORS
330
C
102
}
330
C
100
AcDbDictionary
281
     1
  0
DICTIONARY
  5
1A
102
{ACAD_REACTORS
330
C
102
}
330
C
100
AcDbDictionary
281
     1
  3
Layout1
350
1E
  3
Layout2
350
26
  3
Model
350
22
  0
DICTIONARY
  5
17
102
{ACAD_REACTORS
330
C
102
}
330
C
100
AcDbDictionary
281
     1
  3
Standard
350
18
  0
DICTIONARY
  5
19
102
{ACAD_REACTORS
330
C
102
}
330
C
100
AcDbDictionary
281
     1
  0
ACDBDICTIONARYWDFLT
  5
E
102
{ACAD_REACTORS
330
C
102
}
330
C
100
AcDbDictionary
281
     1
  3
Normal
350
F
100
AcDbDictionaryWithDefault
340
F
  0
DICTIONARY
  5
37F
102
{ACAD_REACTORS
330
C
102
}
330
C
100
AcDbDictionary
281
     1
  0
DICTIONARY
  5
2A
102
{ACAD_REACTORS
330
C
102
}
330
C
100
AcDbDictionary
281
     1
  3
2dWireframe
350
2F
  3
3D Hidden
350
31
  3
3dWireframe
350
30
  3
Basic
350
32
  3
Brighten
350
36
  3
ColorChange
350
3A
  3
Conceptual
350
34
  3
Dim
350
35
  3
Facepattern
350
39
  3
Flat
350
2B
  3
FlatWithEdges
350
2C
  3
Gouraud
350
2D
  3
GouraudWithEdges
350
2E
  3
Linepattern
350
38
  3
Realistic
350
33
  3
Thicken
350
37
  0
LAYOUT
  5
1E
102
{ACAD_REACTORS
330
1A
102
}
330
1A
100
AcDbPlotSettings
  1

  2
none_device
  4

  6

 40
0.0
 41
0.0
 42
0.0
 43
0.0
 44
0.0
 45
0.0
 46
0.0
 47
0.0
 48
0.0
 49
0.0
140
0.0
141
0.0
142
1.0
143
1.0
 70
   688
 72
     0
 73
     0
 74
     5
  7

 75
    16
 76
     0
 77
     2
 78
   300
147
1.0
148
0.0
149
0.0
100
AcDbLayout
  1
Layout1
 70
     1
 71
     1
 10
0.0
 20
0.0
 11
12.0
 21
9.0
 12
0.0
 22
0.0
 32
0.0
 14
1.000000000000000E+20
 24
1.000000000000000E+20
 34
1.000000000000000E+20
 15
-1.000000000000000E+20
 25
-1.000000000000000E+20
 35
-1.000000000000000E+20
146
0.0
 13
0.0
 23
0.0
 33
0.0
 16
1.0
 26
0.0
 36
0.0
 17
0.0
 27
1.0
 37
0.0
 76
     0
330
1B
  0
LAYOUT
  5
26
102
{ACAD_REACTORS
330
1A
102
}
330
1A
100
AcDbPlotSettings
  1

  2
none_device
  4

  6

 40
0.0
 41
0.0
 42
0.0
 43
0.0
 44
0.0
 45
0.0
 46
0.0
 47
0.0
 48
0.0
 49
0.0
140
0.0
141
0.0
142
1.0
143
1.0
 70
   688
 72
     0
 73
     0
 74
     5
  7

 75
    16
 76
     0
 77
     2
 78
   300
147
1.0
148
0.0
149
0.0
100
AcDbLayout
  1
Layout2
 70
     1
 71
     2
 10
0.0
 20
0.0
 11
0.0
 21
0.0
 12
0.0
 22
0.0
 32
0.0
 14
0.0
 24
0.0
 34
0.0
 15
0.0
 25
0.0
 35
0.0
146
0.0
 13
0.0
 23
0.0
 33
0.0
 16
1.0
 26
0.0
 36
0.0
 17
0.0
 27
1.0
 37
0.0
 76
     0
330
23
  0
LAYOUT
  5
22
102
{ACAD_REACTORS
330
1A
102
}
330
1A
100
AcDbPlotSettings
  1

  2
none_device
  4

  6

 40
0.0
 41
0.0
 42
0.0
 43
0.0
 44
0.0
 45
0.0
 46
0.0
 47
0.0
 48
0.0
 49
0.0
140
0.0
141
0.0
142
1.0
143
1.0
 70
  1712
 72
     0
 73
     0
 74
     0
  7

 75
     0
 76
     0
 77
     2
 78
   300
147
1.0
148
0.0
149
0.0
100
AcDbLayout
  1
Model
 70
     1
 71
     0
 10
0.0
 20
0.0
 11
12.0
 21
9.0
 12
0.0
 22
0.0
 32
0.0
 14
1.000000000000000E+20
 24
1.000000000000000E+20
 34
1.000000000000000E+20
 15
-1.000000000000000E+20
 25
-1.000000000000000E+20
 35
-1.000000000000000E+20
146
0.0
 13
0.0
 23
0.0
 33
0.0
 16
1.0
 26
0.0
 36
0.0
 17
0.0
 27
1.0
 37
0.0
 76
     0
330
1F
331
29
  0
MLINESTYLE
  5
18
102
{ACAD_REACTORS
330
17
102
}
330
17
100
AcDbMlineStyle
  2
Standard
 70
     0
  3

 62
   256
 51
90.0
 52
90.0
 71
     2
 49
0.5
 62
   256
  6
BYLAYER
 49
-0.5
 62
   256
  6
BYLAYER
  0
ACDBPLACEHOLDER
  5
F
102
{ACAD_REACTORS
330
E
102
}
330
E
  0
VISUALSTYLE
  5
2F
102
{ACAD_REACTORS
330
2A
102
}
330
2A
100
AcDbVisualStyle
  2
2dWireframe
 70
     4
 71
     0
 72
     2
 73
     0
 90
        0
 40
-0.6
 41
-30.0
 62
     5
 63
     7
421
 16777215
 74
     1
 91
        4
 64
     7
 65
   257
 75
     1
175
     1
 42
1.0
 92
        0
 66
   257
 43
1.0
 76
     1
 77
     6
 78
     2
 67
     7
 79
     5
170
     0
171
     0
290
     0
174
     0
 93
        1
 44
0.0
173
     0
291
     0
 45
0.0
1001
ACAD
1000
AcDbSavedByObjectVersion
1070
     0
  0
VISUALSTYLE
  5
31
102
{ACAD_REACTORS
330
2A
102
}
330
2A
100
AcDbVisualStyle
  2
3D Hidden
 70
     6
 71
     1
 72
     2
 73
     2
 90
        0
 40
-0.6
 41
-30.0
 62
     5
 63
     7
421
 16777215
 74
     2
 91
        2
 64
     7
 65
   257
 75
     2
175
     1
 42
40.0
 92
        0
 66
   257
 43
1.0
 76
     1
 77
     6
 78
     2
 67
     7
 79
     3
170
     0
171
     0
290
     0
174
     0
 93
        1
 44
0.0
173
     0
291
     0
 45
0.0
1001
ACAD
1000
AcDbSavedByObjectVersion
1070
     0
  0
VISUALSTYLE
  5
30
102
{ACAD_REACTORS
330
2A
102
}
330
2A
100
AcDbVisualStyle
  2
3dWireframe
 70
     5
 71
     0
 72
     2
 73
     0
 90
        0
 40
-0.6
 41
-30.0
 62
     5
 63
     7
421
 16777215
 74
     1
 91
        4
 64
     7
 65
   257
 75
     1
175
     1
 42
1.0
 92
        0
 66
   257
 43
1.0
 76
     1
 77
     6
 78
     2
 67
     7
 79
     5
170
     0
171
     0
290
     0
174
     0
 93
        1
 44
0.0
173
     0
291
     0
 45
0.0
1001
ACAD
1000
AcDbSavedByObjectVersion
1070
     0
  0
VISUALSTYLE
  5
32
102
{ACAD_REACTORS
330
2A
102
}
330
2A
100
AcDbVisualStyle
  2
Basic
 70
     7
 71
     1
 72
     0
 73
     1
 90
        0
 40
-0.6
 41
-30.0
 62
     5
 63
     7
421
 16777215
 74
     0
 91
        4
 64
     7
 65
   257
 75
     1
175
     1
 42
1.0
 92
        8
 66
     7
 43
1.0
 76
     1
 77
     6
 78
     2
 67
     7
 79
     5
170
     0
171
     0
290
     0
174
     0
 93
        1
 44
0.0
173
     0
291
     1
 45
0.0
1001
ACAD
1000
AcDbSavedByObjectVersion
1070
     0
  0
VISUALSTYLE
  5
36
102
{ACAD_REACTORS
330
2A
102
}
330
2A
100
AcDbVisualStyle
  2
Brighten
 70
    12
 71
     2
 72
     2
 73
     0
 90
        0
 40
-0.6
 41
-30.0
 62
     5
 63
     7
421
 16777215
 74
     1
 91
        4
 64
     7
 65
   257
 75
     1
175
     1
 42
1.0
 92
        8
 66
     7
 43
1.0
 76
     1
 77
     6
 78
     2
 67
     7
 79
     5
170
     0
171
     0
290
     0
174
     0
 93
        1
 44
50.0
173
     0
291
     1
 45
0.0
1001
ACAD
1000
AcDbSavedByObjectVersion
1070
     0
  0
VISUALSTYLE
  5
3A
102
{ACAD_REACTORS
330
2A
102
}
330
2A
100
AcDbVisualStyle
  2
ColorChange
 70
    16
 71
     2
 72
     2
 73
     3
 90
        0
 40
-0.6
 41
-30.0
 62
     5
 63
     8
421
  8421504
 74
     1
 91
        4
 64
     7
 65
   257
 75
     1
175
     1
 42
1.0
 92
        8
 66
     8
424
  8421504
 43
1.0
 76
     1
 77
     6
 78
     2
 67
     7
 79
     5
170
     0
171
     0
290
     0
174
     0
 93
        1
 44
0.0
173
     0
291
     1
 45
0.0
1001
ACAD
1000
AcDbSavedByObjectVersion
1070
     0
  0
VISUALSTYLE
  5
34
102
{ACAD_REACTORS
330
2A
102
}
330
2A
100
AcDbVisualStyle
  2
Conceptual
 70
     9
 71
     3
 72
     2
 73
     0
 90
        0
 40
-0.6
 41
-30.0
 62
     5
 63
     7
421
 16777215
 74
     2
 91
        2
 64
     7
 65
   257
 75
     1
175
     1
 42
40.0
 92
        8
 66
     7
 43
1.0
 76
     1
 77
     6
 78
     2
 67
     7
 79
     3
170
     0
171
     0
290
     0
174
     0
 93
        1
 44
0.0
173
     0
291
     0
 45
0.0
1001
ACAD
1000
AcDbSavedByObjectVersion
1070
     0
  0
VISUALSTYLE
  5
35
102
{ACAD_REACTORS
330
2A
102
}
330
2A
100
AcDbVisualStyle
  2
Dim
 70
    11
 71
     2
 72
     2
 73
     0
 90
        0
 40
-0.6
 41
-30.0
 62
     5
 63
     7
421
 16777215
 74
     1
 91
        4
 64
     7
 65
   257
 75
     1
175
     1
 42
1.0
 92
        8
 66
     7
 43
1.0
 76
     1
 77
     6
 78
     2
 67
     7
 79
     5
170
     0
171
     0
290
     0
174
     0
 93
        1
 44
-50.0
173
     0
291
     1
 45
0.0
1001
ACAD
1000
AcDbSavedByObjectVersion
1070
     0
  0
VISUALSTYLE
  5
39
102
{ACAD_REACTORS
330
2A
102
}
330
2A
100
AcDbVisualStyle
  2
Facepattern
 70
    15
 71
     2
 72
     2
 73
     0
 90
        0
 40
-0.6
 41
-30.0
 62
     5
 63
     7
421
 16777215
 74
     1
 91
        4
 64
     7
 65
   257
 75
     1
175
     1
 42
1.0
 92
        8
 66
     7
 43
1.0
 76
     1
 77
     6
 78
     2
 67
     7
 79
     5
170
     0
171
     0
290
     0
174
     0
 93
        1
 44
0.0
173
     0
291
     1
 45
0.0
1001
ACAD
1000
AcDbSavedByObjectVersion
1070
     0
  0
VISUALSTYLE
  5
2B
102
{ACAD_REACTORS
330
2A
102
}
330
2A
100
AcDbVisualStyle
  2
Flat
 70
     0
 71
     2
 72
     1
 73
     1
 90
        2
 40
-0.6
 41
30.0
 62
     5
 63
     7
421
 16777215
 74
     0
 91
        4
 64
     7
 65
   257
 75
     1
175
     1
 42
1.0
 92
        8
 66
     7
 43
1.0
 76
     1
 77
     6
 78
     2
 67
     7
 79
     5
170
     0
171
     0
290
     0
174
     0
 93
       13
 44
0.0
173
     0
291
     1
 45
0.0
1001
ACAD
1000
AcDbSavedByObjectVersion
1070
     0
  0
VISUALSTYLE
  5
2C
102
{ACAD_REACTORS
330
2A
102
}
330
2A
100
AcDbVisualStyle
  2
FlatWithEdges
 70
     1
 71
     2
 72
     1
 73
     1
 90
        2
 40
-0.6
 41
30.0
 62
     5
 63
     7
421
 16777215
 74
     1
 91
        4
 64
     7
 65
   257
 75
     1
175
     1
 42
1.0
 92
        0
 66
   257
 43
1.0
 76
     1
 77
     6
 78
     2
 67
     7
 79
     5
170
     0
171
     0
290
     0
174
     0
 93
       13
 44
0.0
173
     0
291
     1
 45
0.0
1001
ACAD
1000
AcDbSavedByObjectVersion
1070
     0
  0
VISUALSTYLE
  5
2D
102
{ACAD_REACTORS
330
2A
102
}
330
2A
100
AcDbVisualStyle
  2
Gouraud
 70
     2
 71
     2
 72
     2
 73
     1
 90
        2
 40
-0.6
 41
30.0
 62
     5
 63
     7
421
 16777215
 74
     0
 91
        4
 64
     7
 65
   257
 75
     1
175
     1
 42
1.0
 92
        0
 66
     7
 43
1.0
 76
     1
 77
     6
 78
     2
 67
     7
 79
     5
170
     0
171
     0
290
     0
174
     0
 93
       13
 44
0.0
173
     0
291
     1
 45
0.0
1001
ACAD
1000
AcDbSavedByObjectVersion
1070
     0
  0
VISUALSTYLE
  5
2E
102
{ACAD_REACTORS
330
2A
102
}
330
2A
100
AcDbVisualStyle
  2
GouraudWithEdges
 70
     3
 71
     2
 72
     2
 73
     1
 90
        2
 40
-0.6
 41
30.0
 62
     5
 63
     7
421
 16777215
 74
     1
 91
        4
 64
     7
 65
   257
 75
     1
175
     1
 42
1.0
 92
        0
 66
   257
 43
1.0
 76
     1
 77
     6
 78
     2
 67
     7
 79
     5
170
     0
171
     0
290
     0
174
     0
 93
       13
 44
0.0
173
     0
291
     1
 45
0.0
1001
ACAD
1000
AcDbSavedByObjectVersion
1070
     0
  0
VISUALSTYLE
  5
38
102
{ACAD_REACTORS
330
2A
102
}
330
2A
100
AcDbVisualStyle
  2
Linepattern
 70
    14
 71
     2
 72
     2
 73
     0
 90
        0
 40
-0.6
 41
-30.0
 62
     5
 63
     7
421
 16777215
 74
     1
 91
        4
 64
     7
 65
   257
 75
     7
175
     7
 42
1.0
 92
        8
 66
     7
 43
1.0
 76
     1
 77
     6
 78
     2
 67
     7
 79
     5
170
     0
171
     0
290
     0
174
     0
 93
        1
 44
0.0
173
     0
291
     1
 45
0.0
1001
ACAD
1000
AcDbSavedByObjectVersion
1070
     0
  0
VISUALSTYLE
  5
33
102
{ACAD_REACTORS
330
2A
102
}
330
2A
100
AcDbVisualStyle
  2
Realistic
 70
     8
 71
     2
 72
     2
 73
     0
 90
        0
 40
-0.6
 41
-30.0
 62
     5
 63
     7
421
 16777215
 74
     1
 91
        0
 64
     7
 65
   257
 75
     1
175
     1
 42
1.0
 92
        8
 66
     8
424
  7895160
 43
1.0
 76
     1
 77
     6
 78
     2
 67
     7
 79
     5
170
     0
171
     0
290
     0
174
     0
 93
       13
 44
0.0
173
     0
291
     0
 45
0.0
1001
ACAD
1000
AcDbSavedByObjectVersion
1070
     0
  0
VISUALSTYLE
  5
37
102
{ACAD_REACTORS
330
2A
102
}
330
2A
100
AcDbVisualStyle
  2
Thicken
 70
    13
 71
     2
 72
     2
 73
     0
 90
        0
 40
-0.6
 41
-30.0
 62
     5
 63
     7
421
 16777215
 74
     1
 91
        4
 64
     7
 65
   257
 75
     1
175
     1
 42
1.0
 92
       12
 66
     7
 43
1.0
 76
     1
 77
     6
 78
     2
 67
     7
 79
     5
170
     0
171
     0
290
     0
174
     0
 93
        1
 44
0.0
173
     0
291
     1
 45
0.0
1001
ACAD
1000
AcDbSavedByObjectVersion
1070
     0
  0
ENDSEC
  0
EOF
